PrimaNota.ru - самый крупный в мире бесплатный архив песенных текстов, аккордов, табулатур и нот


Svavar Knutur - Emotional Anorexic - таба, видео

Регистрация Запомнить меня
Войти через:  Facebook Google Twitter Vk Yandex Mail.ru

Svavar Knutur - Emotional Anorexic - таба, видео

Печатать
Просмотров: 155
-------------------------------------------------------------------------------
                             Emotional Anorexic - Svavar Knútur
-------------------------------------------------------------------------------
Tabbed by: Tómas Torrini
E-mail: TorriniTD@hotmail.com

Tuning: EBGDAE   
Capo 2 or 5 you decide what is good for your voice.

     
e|-----------------------------------------------------------------------------------|
B|---1--------------3------0----------------------1----------------------------3-----|
G|---------0-----------5-------0---------0----2--------0------------------0----------|
D|-------2---2---4-4----------2---2-----3---3---------2---2--4--2--0-0h2-----0-------|
A|---3-----------5-------------------1-----------3----------5-------0h2--------------|
E|------------------------0-----------------------------------------0---3------------|

e|---0--------2-------3---------2-0---------------------2--------|
B|-------1-------3---------3--------3-------------0h1-------3----|
G|-----0---0-------2-----0---0-----------0-----0------------0----|
D|------------0-------2--------------------0h2----------0---0----|
A|---3--------------------------2-----3---------------------2----|
E|----------------------------------------------------------3----|

F    G6    Am    Em9

check out my other tabs!!!!!
Добавлено: 16.08.2015
Вам также может быть интересно:
Другие материалы по этой песне:
  • Аккорды и текст

Страница создана 16.08.2015
http://primanota.ru/svavar-knutur/emotional-anorexic-chords.htm
Привет, Гость.
Предлагаем пройти революционный курс по гитаре.
Подарок от PrimaNota.Ru, забирай!