PrimaNota.ru - самый крупный в мире бесплатный архив песенных текстов, аккордов, табулатур и нот


Suzanne Vega - In The Eye - текст песни, бас-таба, видео

Регистрация Запомнить меня
Войти через:  Facebook Google Twitter Vk Yandex Mail.ru

Suzanne Vega - In The Eye - текст песни, бас-таба, видео

Печатать
Просмотров: 93
Авторы музыки: Marc Shulman, Suzanne Vega
Авторы текста: Suzanne Vega
Tabbed by: bassm99
E-mail: alanmatthews1966@yahoo.co.uk

Tuning: E, A, D, G

"In The Eye" from the album "Solitude Standing" (1987)
Written by Suzanne Vega/Marc Shulman

Intro: (Play Twice)

G|----------------------------------------------------------------------------|
D|----------------------5-----------------------------------------------------|
A|------0-5-7--8----3-5-------------------------------------------------------|
E|--3-3----------1------------------------------------------------------------|

Verse: (Play 8 Times)

G|----------------------------------------------------------------------------|
D|----------------------5-----------------------------------------------------|
A|------0-5-7--8----3-5-------------------------------------------------------|
E|--3-3----------1------------------------------------------------------------|

Chorus:

G|----------------------------------------------------------------------------|
D|--------------6-----------------6---8---------------6-----------------------|
A|------------6-----------------6-------------------6------------3------------|
E|--4-4--6--4-----6---4-4--6--4-----6-----4-4--6--4-----6---------------------|

Repeat Verse: (Play 4 Times)

Chorus:

G|----------------------------------------------------------------------------|
D|----------------6-------------------6-----------------6---------------------|
A|--------------6-------------------6-----------------6-----------------------|
E|--4-4--6-6--4-----6-6---4-4--6--4-----6---4-4--6--4-----6-------------------|

Bridge: (Play Twice)

G|----------------------------------------------------------------------------|
D|----------------------------------------------------------------------------|
A|--7---6-------6-------------------------------------------------------------|
E|----------3-----------------------------------------------------------------|

Repeat Intro: (Play Twice)

Repeat Verse: (Play 4 Times)

Chorus:

G|----------------------------------------------------------------------------|
D|--------------6-----------------6-----------------6-------------------------|
A|------------6-----------------6-----------------6------------3--------------|
E|--4-4--6--4-----6---4-4--6--4-----6---4-4--6--4-----6-----------------------|

Repeat Bridge: (Play 6 Times) (Fades Out)

End:

G|----------------------------------------------------------------------------|
D|----------------------------------------------------------------------------|
A|--7---6---------------------------------------------------------------------|
E|----------------------------------------------------------------------------| 
Добавлено: 05.08.2015
Другие материалы по этой песне:
  • Аккорды и текст

Страница создана 02.04.2012
http://primanota.ru/suzanne-vega/in-the-eye-chords.htm
Привет, Гость.
Предлагаем пройти революционный курс по гитаре.
Подарок от PrimaNota.Ru, забирай!