PrimaNota.ru - самый крупный в мире бесплатный архив песенных текстов, аккордов, табулатур и нот


Suuns - Music Wont Save You - таба, видео

Регистрация Запомнить меня
Войти через:  Facebook Google Twitter Vk Yandex Mail.ru

Suuns - Music Wont Save You - таба, видео

Печатать
Просмотров: 100
-------------------------------------------------------------------------------
                         Music Won't Save You - Suuns
-------------------------------------------------------------------------------

Tabbed by: Ernestas Blaževič
E-mail: ernestas.blazevic@gmail.com

Tuning: EADGBe

The whole song is based on 2 chords. I'm sure about the chords, but can't tell
100 % that the tab is correct, as it's hard to figure out from the song the
strumming pattern, so try to listen to it yourself. The guitar part starts from
03:24.

Chords used:

Cmaj7: x35453
C: x32010

               Cmaj7                   Cmaj7                   Cmaj7
e|----------------3-----------------------3-----------------------3--------------|
B|----------5-------5-------5-------5-------5-------5-------5-------5-------5----|
G|--------4---4-------4---4-------4---4-------4---4-------4---4-------4---4------|
D|------5-------5-------5-------5-------5-------5-------5-------5-------5--------|
A|----3-----------------------3-----------------------3--------------------------|
E|-------------------------------------------------------------------------------|
         
               Cmaj7                     C                       C 
e|----------------3-----------------------0-----------------------0--------------|
B|----------5-------5-------5-------1-------1-------1-------1-------1-------1----|
G|--------4---4-------4---4-------0---0-------0---0-------0---0-------0---0------|
D|------5-------5-------5-------2-------2-------2-------2-------2-------2--------|
A|----3-----------------------3-----------------------3--------------------------|
E|-------------------------------------------------------------------------------|

               Cmaj7                   Cmaj7                     C
e|----------------3-----------------------3-----------------------0--------------|
B|----------5-------5-------5-------5-------5-------5-------1-------1-------1----|
G|--------4---4-------4---4-------4---4-------4---4-------0---0-------0---0------|
D|------5-------5-------5-------5-------5-------5-------2-------2-------2--------|
A|----3-----------------------3-----------------------3--------------------------|
E|-------------------------------------------------------------------------------|

                 C                      C
e|----------------0--------------|----0--------|
B|----------1-------1-------1----|-----1-------|
G|--------0---0-------0---0------|------0------|
D|------2-------2-------2--------|-------2-----|
A|----3--------------------------|--------3----|
E|-------------------------------|-------------|

************************************

| /   slide up
| \   slide down
| h   hammer-on
| p   pull-off
| ~   vibrato
| +   harmonic
| x   Mute note
| b   Bend
| pb  Pre-bend
| br  Bend release
| pbr Pre-bend release
| brb Bend release bend

************************************
Добавлено: 16.08.2015
Другие материалы по этой песне:
  • Аккорды и текст

Страница создана 16.08.2015
http://primanota.ru/suuns/music-wont-save-you-chords.htm
Привет, Гость.
Предлагаем пройти революционный курс по гитаре.
Подарок от PrimaNota.Ru, забирай!