PrimaNota.ru - самый крупный в мире бесплатный архив песенных текстов, аккордов, табулатур и нот


Suuns - Edies Dream - таба, видео

Регистрация Запомнить меня
Войти через:  Facebook Google Twitter Vk Yandex Mail.ru

Suuns - Edies Dream - таба, видео

Печатать
Просмотров: 102
-------------------------------------------------------------------------------
                           Edie's Dream - Suuns
-------------------------------------------------------------------------------

Tabbed by: Ernestas Blaževič
E-mail: ernestas.blazevic@gmail.com

Tuning: EADGBe

Live version (different Cm7/A#, D#m/C# chord strumming pattern)

Introduction

e|-------------------------------------------------------------------|
B|--11~--9--7--9/11~--9--7------------11~--9--7--9/11~--9--7---------|
G|--------------------------8--7~-----------------------------8--7~--|
D|-------------------------------------------------------------------|
A|-------------------------------------------------------------------|
E|-------------------------------------------------------------------|

e|-------------------------------------------------------------------|
B|--11~--9--7--9/11~--9--7------------11~--9--7--9/11~--9--7---------|
G|--------------------------8--7~-----------------------------8--7~--|
D|-------------------------------------------------------------------|
A|-------------------------------------------------------------------|
E|-------------------------------------------------------------------|

'I have a fear <..>'

          Cm7/A#                 Cm7/A#            D#m/C#
e|-----------3--------3-------------3---------6-------6--------|
B|--------------4-----4----------------4------7----------7-----|
G|--------3--------3--3----------3--------3---6-------------6--|
D|-----5--------------5-------5---------------8----8-----------|
A|--------------------------------------------x----------------|
E|--6---------------------6-------------------9----------------|

'<..> years and years to change'

e|---------------------------------------------------------------------------|
B|---------------------------------------------------------------------------|
G|---------------------------------------------------------------------------|
D|------14~------14~------14~------13~-------14~------14~------14~------13~--|
A|---------------------------------------------------------------------------|
E|--12-------12-------12-------12--------12-------12-------12-------12-------|

e|---------------------------------------------------------------------------|
B|---------------------------------------------------------------------------|
G|---------------------------------------------------------------------------|
D|-------14~------14~------14~------13~------11~------11~------11~------13~--|
A|---------------------------------------------------------------------------|
E|---12-------12-------12-------12-------12-------12-------12-------12-------|

e|---------------------------------------------------------------------------|
B|---------------------------------------------------------------------------|
G|---------------------------------------------------------------------------|
D|-------14~------14~------14~------13~------11~------11~------11~------13~--|
A|---------------------------------------------------------------------------|
E|---12-------12-------12-------12-------12-------12-------12-------12-------|

e|---------------------------------------------------------------------------|
B|---------------------------------------------------------------------------|
G|---------------------------------------------------------------------------|
D|-------14~------14~------14~------13~------11~------11~------11~------13~--|
A|---------------------------------------------------------------------------|
E|---12-------12-------12-------12-------12-------12-------12-------12-------|

e|---------------------------------------------------------------------------|
B|---------------------------------------------------------------------------|
G|---------------------------------------------------------------------------|
D|-------14~------14~------14~------13~------11~------11~------11~------13~--|
A|---------------------------------------------------------------------------|
E|---12-------12-------12-------12-------12-------12-------12-------12-------|

e|---------------------------------------------------------------------------|
B|---------------------------------------------------------------------------|
G|---------------------------------------------------------------------------|
D|-------14~------14~------14~------13~------11~------11~------11~------13~--|
A|---------------------------------------------------------------------------|
E|---12-------12-------12-------12-------12-------12-------12-------12-------|

Ending ('These same visions <..>')

e|---------------------------------------------------------------------------|
B|---------------------------------------------------------------------------|
G|---------------------------------------------------------------------------|
D|-------13~------13~------13~------13~------13~------13~------13~------13~--|
A|---------------------------------------------------------------------------|
E|---12-------12-------12-------12-------12-------12-------12-------12-------|

e|---------------------------------------------------------------------------|
B|---------------------------------------------------------------------------|
G|---------------------------------------------------------------------------|
D|------4~-----4~-----4~-----4~------11~------11~------11~------13--13-------|
A|---------------------------------------------------------------------------|
E|---2------2------2------2------12-------12-------12-------12---------------|

************************************

| /   slide up
| \   slide down
| h   hammer-on
| p   pull-off
| ~   vibrato
| +   harmonic
| x   Mute note
| b   Bend
| pb  Pre-bend
| br  Bend release
| pbr Pre-bend release
| brb Bend release bend

************************************
Добавлено: 29.12.2015
Вам также может быть интересно:
Другие материалы по этой песне:
  • Аккорды и текст

Страница создана 29.12.2015
http://primanota.ru/suuns/edies-dream-chords.htm
Привет, Гость.
Предлагаем пройти революционный курс по гитаре.
Подарок от PrimaNota.Ru, забирай!