PrimaNota.ru - самый крупный в мире бесплатный архив песенных текстов, аккордов, табулатур и нот


Suuns - 2020 - аккорды и текст, видео

Регистрация Запомнить меня
Войти через:  Facebook Google Twitter Vk Yandex Mail.ru

Suuns - 2020 - аккорды и текст, видео

Печатать
Просмотров: 163
Уроки эстрадного вокала в Санкт-Петербурге
Авторы: Suuns

2020
Suuns
-------------------------------------------------------------------------------
                                2020 - Suuns
-------------------------------------------------------------------------------
Tabbed by: Seismatters
Tuning: Standard E A D G B E
YouTube Reference: https://www.youtube.com/watch?v=oQgicu6G6n8


INTRO 

   Fm  x16

Main Riff ( / = slide to, * = ring out)

e|-13--12/11--10/9--8--7--6--5--4--3--2--1-----------------------------------|
B|------------------------------------------4--3--2--------------------------|
G|---------------------------------------------------3--2--------------------|
D|---------------------------------------------------------4--3-3*-----------|
A|---------------------------------------------------------------------------|
E|---------------------------------------------------------------------------|

e|-13/17/13--12/11--10/9--8--7--6--5--4--3--2--1-----------------------------|
B|------------------------------------------------4--3--2--------------------|
G|---------------------------------------------------------3--2--------------|
D|---------------------------------------------------------------4--3-3*-----|
A|---------------------------------------------------------------------------|
E|---------------------------------------------------------------------------|

VERSE 1

Fm
   And what you see is really what you see,
   Fm   
   what you, watch you, watch you

   (play main riff)

Fm
   Do what you please, the thing that you see, 
   Fm  
   what you, watch you, watch you

   (play main riff)

PRE-CHORUS

F
  And what you see you feel 
         F
  Coming real, take your way

CHORUS
  F
  Doo doo doo doo, doo doo doo doo,
  F
  all through the way,
  G#
  Did you, did you, did you, did you
          F
  Did you, did you, did you, did you

Chorus Riff

e|---------------------------------------------------------------------------|
B|---------------------------------------------------------------------------|
G|-1--2--3--4--5--5--4--3--1---1--2--3--4--5--5--4--3------------------------|
D|---------------------------------------------------------------------------|
A|---------------------------------------------------------------------------|
E|---------------------------------------------------------------------------|

End Chorus on

   A# x 16

VERSE 2

   (play main riff)

   F
   And what you see is really what you see,
   F   
   what you, watch you, watch you
   A
   And what you see is really what you see,   
   A
   what you, watch you, watch you 
                E
   And what you see you feel 
   E
   Coming real, take your way

CHORUS x 2

F
  Doo doo doo doo, doo doo doo doo,
  F
  all through the way,
  G#
  Did you, did you, did you, did you
          F
  Did you, did you, did you, did you

F
  Doo doo doo doo, doo doo doo doo,
  F
  all through the way,
  G#
  Did you, did you, did you, did you
          F
  Did you, did you, did you, did you

BRIDGE

   A# x 16

Bridge Riff

e|-13-13-13-13-15-16-17-17-17-17-16-15-13-13-13-13-15-16-17-17-17-17-16-15---|
B|---------------------------------------------------------------------------|
G|---------------------------------------------------------------------------|
D|---------------------------------------------------------------------------|
A|---------------------------------------------------------------------------|
E|---------------------------------------------------------------------------|

e|-13-13-13-13-15-16-17-17-17-17-16-15--13-13-13-13-15-16-17-17-17-17-16-15--|
B|---------------------------------------------------------------------------|
G|---------------------------------------------------------------------------|
D|---------------------------------------------------------------------------|
A|---------------------------------------------------------------------------|
E|---------------------------------------------------------------------------|

CHORUS x 2

F
  Doo doo doo doo, doo doo doo doo,
  F
  all through the way,
  G#
  Did you, did you, did you, did you
          F
  Did you, did you, did you, did you

F
  Doo doo doo doo, doo doo doo doo,
  F
  all through the way,
  G#
  Did you, did you, did you, did you
          F
  Did you, did you, did you, did you

END ON INTRO

   Fm  x16
Добавлено: 22.06.2016
Другие материалы по этой песне:
  • Аккорды и текст

Страница создана 22.06.2016
http://primanota.ru/suuns/2020-chords.htm
Привет, Гость.
Предлагаем пройти революционный курс по гитаре.
Подарок от PrimaNota.Ru, забирай!