PrimaNota.ru - самый крупный в мире бесплатный архив песенных текстов, аккордов, табулатур и нот


Susumu Hirasawa - The Girl In Byakkoya - таба, видео

Регистрация Запомнить меня
Войти через:  Facebook Google Twitter Vk Yandex Mail.ru

Susumu Hirasawa - The Girl In Byakkoya - таба, видео

Печатать
Просмотров: 246
Уроки эстрадного вокала в Санкт-Петербурге
-------------------------------------------------------------------------------
                    The Girl In Byakkoya from Yasutaka Tsutsui's "Paprika"
-------------------------------------------------------------------------------
Tabbed by: Lichoplos
E-mail: lichoplos@gmail.com

Tuning: EADGBE
Chords: F, Dm...   F Fmaj7, Dm, Fmaj7...

e|-----------5-----------5-----------5-----------5--|
B|--------6-----------6-----------6-----------6-----|
G|-----5-----------5-----------5-----------5--------|
D|--------------------------------------------------|
A|--8-----------8-----------7-----------7-----------|
E|--------------------------------------------------|

e|--------------------------------------------|
B|----------6-5-6----------------6-5-6--------|
G|--------7-------7------------7-------7------|
D|-----7-------------7------7-------------7---|
A|--5--------------------5--------------------|
E|--------------------------------------------|

I'd love your feedback and suggests to make this tab as accurate as possible!

************************************

| /   slide up
| \   slide down
| h   hammer-on
| p   pull-off
| ~   vibrato
| +   harmonic
| x   Mute note
| b   Bend
| pb  Pre-bend
| br  Bend release
| pbr Pre-bend release
| brb Bend release bend

************************************
Добавлено: 16.04.2016
Другие материалы по этой песне:
  • Аккорды и текст

Страница создана 16.04.2016
http://primanota.ru/susumu-hirasawa/girl-in-byakkoya-chords.htm
Привет, Гость.
Предлагаем пройти революционный курс по гитаре.
Подарок от PrimaNota.Ru, забирай!