PrimaNota.ru - самый крупный в мире бесплатный архив песенных текстов, аккордов, табулатур и нот


Susanne Sundfor - Delirious - бас-таба, видео

Регистрация Запомнить меня
Войти через:  Facebook Google Twitter Vk Yandex Mail.ru

Susanne Sundfor - Delirious - бас-таба, видео

Печатать
Просмотров: 81
-------------------------------------------------------------------------------
                             SONG NAME - Band Name
-------------------------------------------------------------------------------
Tabbed by: Daniel Avichail
E-mail: daniel.avichail@live.com

Tuning: Standard

The song doesn't actually have a bass guitar in it, but I liked it so much that I managed
to pick it up by ear and create my own rendition as far as picking / finger playing goes.
I decided to tab out this song as is from start to end rather than breaking it up and simply 
telling you where to repeat. I created spacing between different segments of the song.


G|------------------------------------------------------------------|
D|------------------------------------------------------------------|
A|---------3---------------3-----------2---3-------5----------------|
E|-0---------------0---------------0-----------3--------------------|

G|------------------------------------------------------------------|
D|------------------------------------------------------------------|
A|-5-----------------------3-----------2---3-------5----------------|
E|-----5---3-------0---------------0-----------3--------------------|

G|------------------------------------------------------------------|
D|------------------------------------------------------------------|
A|---------3333------------3333--------22223333----5555555555555555-|
E|-00000000----333300000000----33330000--------3333-----------------|

G|------------------------------------------------------------------|
D|------------------------------------------------------------------|
A|-5555--------------------3333--------22223333----5555555555555555-|
E|-----55553333333300000000----33330000--------3333-----------------|




G|------------------------------------------------------------------|
D|------------------------------------------------------------------|
A|-----------------1-111-111-111111---------------------------------|
E|-3-333-333-333-33----------------1-111-111-111-113-333-333-333-33-|

G|------------------------------------------------------------------|
D|------------------------------------------------------------------|
A|---------111111113333333366666666---------------------------------|
E|-33333333------------------------1---------------3----------------|




G|------------------------------------------------------------------|
D|------------------------------------------------------------------|
A|-----------------1------------------------------------------------|
E|-3-------------------------------1---------------3----------------|




G|----------------------------------|
D|----------------------------------|
A|---------3333------------3333-----|
E|-00000000----333300000000----3333-|

G|------------------------------------------------------------------|
D|------------------------------------------------------------------|
A|---------3333------------3333--------22223333----5555555555555555-|
E|-00000000----333300000000----33330000--------3333-----------------|

G|------------------------------------------------------------------|
D|------------------------------------------------------------------|
A|-5555--------------------3333--------22223333----5555555555555555-|
E|-----55553333333300000000----33330000--------3333-----------------|




G|------------------------------------------------------------------|
D|------------------------------------------------------------------|
A|-----------------1-111-111-111111---------------------------------|
E|-3-333-333-333-33----------------1-111-111-111-113-333-333-333-33-|

G|------------------------------------------------------------------|
D|------------------------------------------------------------------|
A|---------111111113333333366666666---------------------------------|
E|-33333333------------------------1---------------3----------------|



There's a pause at this point for two measures.


G|------------------------------------------------------------------|
D|------------------------------------------------------------------|
A|-----------------1------------------------------------------------|
E|-3-------------------------------1---------------3----------------|

G|------------------------------------------------------------------|
D|------------------------------------------------------------------|
A|-----------------1------------------------------------------------|
E|-3-------------------------------1---------------3----------------|


G|------------------------------------------------------------------|
D|------------------------------------------------------------------|
A|-----------------1-111-111-111111---------------------------------|
E|-3-333-333-333-33----------------1-111-111-111-113-333-333-333333-|

G|------------------------------------------------------------------|
D|------------------------------------------------------------------|
A|-----------------1-111-111-111111---------------------------------|
E|-3-333-333-333-33----------------1-111-111-111-113-333-333-333333-|




G|------------------------------------------------------------------|
D|------------------------------------------------------------------|
A|---------3333------------3333--------22223333----5555555555555555-|
E|-00000000----333300000000----33330000--------3333-----------------|

G|------------------------------------------------------------------|
D|------------------------------------------------------------------|
A|-5555--------------------3333--------22223333----5555555555555555-|
E|-----55553333333300000000----33330000--------3333-----------------|




G|------------------------------------------------------------------|
D|------------------------------------------------------------------|
A|-----------------1-111-111-111111---------------------------------|
E|-3-333-333-333-33----------------1-111-111-111-113-333-333-333-33-|

G|------------------------------------------------------------------|
D|------------------------------------------------------------------|
A|---------111111113333333366666666----------------1111111155555555-|
E|-33333333------------------------1111111122222222-----------------|

G|------------------------------------------------------------------|
D|------------------------------------------------------------------|
A|-----------------1-111-111-111111---------------------------------|
E|-3-333-333-333-33----------------1-111-111-111-113-333-333-333-33-|

G|------------------------------------------------------------------|
D|------------------------------------------------------------------|
A|---------111111113333333366666666---------------------------------|
E|-33333333------------------------1---------------3----------------|



| /  slide up
| \  slide down
| h  hammer-on
| p  pull-off
| ~  vibrato
| +  harmonic
| x  Mute note
===============================================================================
Добавлено: 29.10.2015
Другие материалы по этой песне:
  • Аккорды и текст

Страница создана 29.10.2015
http://primanota.ru/susanne-sundfor/delirious-chords.htm
Привет, Гость.
Предлагаем пройти революционный курс по гитаре.
Подарок от PrimaNota.Ru, забирай!