PrimaNota.ru - самый крупный в мире бесплатный архив песенных текстов, аккордов, табулатур и нот


Susan Tedeschi - I Fell In Love Live - таба, видео

Регистрация Запомнить меня
Войти через:  Facebook Google Twitter Vk Yandex Mail.ru

Susan Tedeschi - I Fell In Love Live - таба, видео

Печатать
Просмотров: 62
Уроки эстрадного вокала в Санкт-Петербурге
Band/Artist: Susan Tedeschi
Song Title: I Fell In Love
Album: Live From Austin TX
Tuning: Standard
Transcribed by: aig91




*Rhythm/Main guitar*




     Intro                                                     
E||----------------0--0--0--0--3--5--|--5------0--0--0--0--3---------|
B||---------------/5--5--5--5--5--5--|--5-----/5--5--5--5--5s-3p-0---|
G||---------4------------------------|-----4-------------------------|
D||----------------------------------|-------------------------------|
A||----------------------------------|-------------------------------|
E||----------------------------------|-------------------------------|


--------0--0--0--0--0--0--|--0--0---------------------|
--------5--5--5--5--3--3--|--2--0--/3--3--3--3--------|
-----4--------------------|--------/4--4--4--4--2--0--|
--------------------------|---------------------------|
--------------------------|---------------------------|
--------------------------|---------------------------|


--------------------------|--------------------------|
--------------------------|--------------------------|
--------------------------|--------------------------|
--2--0--------------------|--------------------------|
--------------------2--2--|--4--2--------------2--2--|
--------0--0--3--4--------|--------0--0--3--4--------|


--------------------------|----------------------------|
--------------------------|----------------------------|
--------------------------|----------------------------|
--------------------------|----------------------------|
--4--2--------------2--2--|--4--2--4--2-----2h-4-2-----|
--------0--0--3--4--------|--------------4----------3--|


                                v                     
--------------------------|--------------------------|
--------------------------|-----x--------------------|
--------------------------|-----x--------------------|
--------2--2--------2--2--|--4--x--------------2--2--|
-----2--------3--4--------|-----x--0--0--3--4--------|
--4-----------------------|--------------------------|


     v                                                                             
--------------------------|-------------------------|--------------------------|
-----x--------------------|-------------------------|--------------------------|
-----x--------------------|-------------------------|--------------------------|
--4--x--------------------|-------------------------|--------4--4-----2--4--4--|
-----x--------------2--2--|--4--2--4--2-----2----2--|--4--2--------4-----------|
--------0--0--3--4--------|--------------4----------|--------------------------|


     v                          v                                                  
--------------------------|--------------------------|-------------------------|
-----x--------------------|-----x--------------------|-------------------------|
-----x--------------------|-----x--------------------|-------------------------|
--6--x--------------2--2--|--4--x--------------------|-------------------------|
-----x--0--0--3--4--------|-----x--------------2--2--|--4--2--4--2-----2----2--|
--------------------------|--------0--0--3--4--------|--------------4----------|


        Verse 1                                                        
-------------------------|---------------------|----------------------|
-------------------------|---------------------|----------------------|
--------9----------------|-------9-------------|-------9---------9----|
--------9----------------|-------9-------------|-------9---------9----|
--4--2--7----------------|-------7-------------|-------7---------7----|
-------------------------|---------------------|----------------------|


                                   Chorus                  
--------------------------|------------------------------|
-------/3--3--3--3--3--3--|--3--3------------------------|
-------/4--4--4--4--4--4--|--4--4------------------------|
--------------------------|------------------------2--2--|
--------------------------|--------0------0--3--4--------|
--------------------------|------------------------------|


--------------------------|--------------------------|
--------------------------|--------------------------|
--------------------------|--------------------------|
--4--2--------------2--2--|--4--2--------------------|
--------0--0--3--4--------|--------------------2--2--|
--------------------------|--------0--0--3--4--------|


--------------------------|--------------------------|
--------------------------|--------------------------|
--------------------------|--------------------------|
--------------------------|--------4--4-----2--4--4--|
--4--2--------------2--2--|--4--2--------4-----------|
--------0--0--3--4--------|--------------------------|


--------------------------|--------------------------|-------------------------|
--------------------------|--------------------------|-------------------------|
--------------------------|--------------------------|-------------------------|
--6--4--------------2--2--|--4--2--------------------|-------------------------|
--------0--0--3--4--------|--------------------2--2--|--4--2--4--2-----2----2--|
--------------------------|--------0--0--3--4--------|--------------4----------|


        Verse 2                                            
-------------------------------|--------------------------|
-------------------------------|--------------------------|
-------------------------------|--------------------------|
-------------------------------|--------------------------|
--4--2-------------------2--2--|--4--2--------------2--2--|
--------0-------0--3--4--------|--------0--0--3--4--------|


--------------------------|---------------------------|
--------------------------|--------/3--3--3--3--3--3--|
--------------------------|--------/4--4--4--4--4--4--|
--------------------------|---------------------------|
--4--2--------------2--2--|--4--2---------------------|
--------0--0--3--4--------|---------------------------|


        Chorus                                           
------------------------------|--------------------------|
--3--3------------------------|--------------------------|
--4--4------------------------|--------------------------|
------------------------2--2--|--4--2--------------2--2--|
--------0------0--3--4--------|--------0--0--3--4--------|
------------------------------|--------------------------|


--------------------------|--------------------------|
--------------------------|--------------------------|
--------------------------|--------------------------|
--4--2--------------------|--------------------------|
--------------------2--2--|--4--2--------------2--2--|
--------0--0--3--4--------|--------0--0--3--4--------|


--------------------------|--------------------------|
--------------------------|--------------------------|
--------------------------|--------------------------|
--------4--4-----2--4--4--|--6--4--------------2--2--|
--4--2--------4-----------|--------0--0--3--4--------|
--------------------------|--------------------------|


--------------------------|-------------------------|
--------------------------|-------------------------|
--------------------------|-------------------------|
--4--2--------------------|-------------------------|
--------------------2--2--|--4--2--4--2-----2----2--|
--------0--0--3--4--------|--------------4----------|


        Chorus                                            
------------------------------|--------------------------|
------------------------------|--------------------------|
------------------------------|--------------------------|
------------------------------|--------------------------|
--4--2------------------2--2--|--4--2--------------2--2--|
--------0------0--3--4--------|--------0--0--3--4--------|


--------------------------|--------------------------|
--------------------------|--------------------------|
--------------------------|--------------------------|
--------------------------|--------------------------|
--4--2--------------2--2--|--4--2--------------2--2--|
--------0--0--3--4--------|--------0--0--3--4--------|


--------------------------|--------------------------|
--------------------------|--------------------------|
--------------------------|--------------------------|
--------------------2--2--|--4--2--------------2--2--|
--4--2--0--0--3--4--------|--------0--0--3--4--------|
--------------------------|--------------------------|

 
--------------------------|--------------------------|
--------------------------|--------------------------|
--------------------------|--------------------------|
--4--2--------------------|--------------------------|
--------------------2--2--|--4--2--------------2--2--|
--------0--0--3--4--------|--------0--0--3--4--------|


--------------------------|--------------------------|
--------------------------|--------------------------|
--------------------------|--------------------------|
--------4--4-----2--4--4--|--6--4--------------2--2--|
--4--2--------4-----------|--------0--0--3--4--------|
--------------------------|--------------------------|


--------------------------|-------------------------|
--------------------------|-------------------------|
--------------------------|-------------------------|
--4--2--------------------|-------------------------|
--------------------2--2--|--4--2--4--2-----2----2--|
--------0--0--3--4--------|--------------4----------|


        Piano solo                                            
----------------------------------|--------------------------|
----------------------------------|--------------------------|
----------------------------------|--------------------------|
----------------------------------|--------------------------|
--4--2----------------------2--2--|--4--2--------------2--2--|
--------0----------0--3--4--------|--------0--0--3--4--------|


--------------------------|---------------------------|
--------------------------|--------/3--3--3--3--------|
--------------------------|--------/4--4--4--4--2--0--|
--------------------------|---------------------------|
--4--2--------------2--2--|--4--2---------------------|
--------0--0--3--4--------|---------------------------|


--------------------------|--------------------------|
--------------------------|--------------------------|
--------------------------|--------------------------|
--2--0--------------2--2--|--4--2--------------2--2--|
--------0--0--3--4--------|--------0--0--3--4--------|
--------------------------|--------------------------|

 
--------------------------|-------------------------|--------------------------|
--------------------------|-------------------------|--------------------------|
--------------------------|-------------------------|--------------------------|
--4--2--------------------|-------------------------|--------4--4-----2--4--4--|
--------------------2--2--|--4--2--4--2-----2----2--|--4--2--------4-----------|
--------0--0--3--4--------|--------------4----------|--------------------------|


--------------------------|--------------------------|-------------------------|
--------------------------|--------------------------|-------------------------|
--------------------------|--------------------------|-------------------------|
--6--4--------------2--2--|--4--2--------------------|-------------------------|
--------0--0--3--4--------|--------------------2--2--|--4--2--4--2-----2----2--|
--------------------------|--------0--0--3--4--------|--------------4----------|


        Guitar solo                                            
-----------------------------------|--------------------------|
-----------------------------------|--------------------------|
-----------------------------------|--------------------------|
-----------------------------------|--------------------------|
--4--2-----------------------2--2--|--4--2--------------2--2--|
--------0-----------0--3--4--------|--------0--0--3--4--------|


--------------------------|--------------------------|
--------------------------|--------------------------|
--------------------------|--------------------------|
--------------------------|--------------------------|
--4--2--------------2--2--|--4--2--------------2--2--|
--------0--0--3--4--------|--------0--0--3--4--------|


--------------------------|--------------------------|
--------------------------|--------------------------|
--------------------------|--------------------------|
--------------------2--2--|--4--2--------------2--2--|
--4--2--0--0--3--4--------|--------0--0--3--4--------|
--------------------------|--------------------------|


--------------------------|--------------------------|
--------------------------|--------------------------|
--------------------------|--------------------------|
--4--2--------------------|--------------------------|
--------------------2--2--|--4--2--------------2--2--|
--------0--0--3--4--------|--------0--0--3--4--------|


--------------------------|--------------------------|
--------------------------|--------------------------|
--------------------------|--------------------------|
--------4--4-----2--4--4--|--6--4--------------2--2--|
--4--2--------4-----------|--------0--0--3--4--------|
--------------------------|--------------------------|


--------------------------|-------------------------|--------------------------|
--------------------------|-------------------------|--------------------------|
--------------------------|-------------------------|--------------------------|
--4--2--------------------|-------------------------|--------------------------|
--------------------2--2--|--4--2--4--2-----2----2--|--4--2--------------2--2--|
--------0--0--3--4--------|--------------4----------|--------0--0--3--4--------|


--------------------------|--------------------------|
--------------------------|--------------------------|
--------------------------|--------------------------|
--------------------------|--------------------------|
--4--2--------------2--2--|--4--2--------------2--2--|
--------0--0--3--4--------|--------0--0--3--4--------|


--------------------------|--------------------------|
--------------------------|--------------------------|
--------------------------|--------------------------|
--------------------------|--------------------2--2--|
--4--2--------------2--2--|--4--2--0--0--3--4--------|
--------0--0--3--4--------|--------------------------|


--------------------------|--------------------------|
--------------------------|--------------------------|
--------------------------|--------------------------|
--4--2--------------2--2--|--4--2--------------------|
--------0--0--3--4--------|--------------------2--2--|
--------------------------|--------0--0--3--4--------|


--------------------------|--------------------------|
--------------------------|--------------------------|
--------------------------|--------------------------|
--------------------------|--------4--4-----2--4--4--|
--4--2--------------2--2--|--4--2--------4-----------|
--------0--0--3--4--------|--------------------------|


--------------------------|--------------------------|-------------------------|
--------------------------|--------------------------|-------------------------|
--------------------------|--------------------------|-------------------------|
--6--4--------------2--2--|--4--2--------------------|-------------------------|
--------0--0--3--4--------|--------------------2--2--|--4--2--4--2-----2----2--|
--------------------------|--------0--0--3--4--------|--------------4----------|


--------------------------|--------------------------|
--------------------------|--------------------------|
--------------------------|--------------------------|
--------------------------|--------------------------|
--4--2--------------2--2--|--4--2--------------2--2--|
--------0--0--3--4--------|--------0--0--3--4--------|


--------------------------|--------------------------|
--------------------------|--------------------------|
--------------------------|--------------------------|
--------------------------|--------------------------|
--4--2--------------2--2--|--4--2--------------2--2--|
--------0--0--3--4--------|--------0--0--3--4--------|


--------------------------|--------------------------|
--------------------------|--------------------------|
--------------------------|--------------------------|
--------------------2--2--|--4--2--------------2--2--|
--4--2--0--0--3--4--------|--------0--0--3--4--------|
--------------------------|--------------------------|


--------------------------|--------------------------|
--------------------------|--------------------------|
--------------------------|--------------------------|
--4--2--------------------|--------------------------|
--------------------2--2--|--4--2--------------2--2--|
--------0--0--3--4--------|--------0--0--3--4--------|


--------------------------|--------------------------|
--------------------------|--------------------------|
--------------------------|--------------------------|
--------4--4-----2--4--4--|--6--4--------------2--2--|
--4--2--------4-----------|--------0--0--3--4--------|
--------------------------|--------------------------|


                                                             Verse 3             
--------------------------|-------------------------|-------------------------|
--------------------------|-------------------------|-------------------------|
--------------------------|-------------------------|--------9----------------|
--4--2--------------------|-------------------------|--------9----------------|
--------------------2--2--|--4--2--4--2-----2----2--|--4--2--7----------------|
--------0--0--3--4--------|--------------4----------|-------------------------|


---------------------|----------------------|--------------------------|
---------------------|----------------------|-------/3--3--3--3--3--3--|
-------9-------------|-------9---------9----|-------/4--4--4--4--4--4--|
-------9-------------|-------9---------9----|--------------------------|
-------7-------------|-------7---------7----|--------------------------|
---------------------|----------------------|--------------------------|


        Chorus                                            
------------------------------|--------------------------|
--3--3------------------------|--------------------------|
--4--4------------------------|--------------------------|
------------------------2--2--|--4--2--------------2--2--|
--------0------0--3--4--------|--------0--0--3--4--------|
------------------------------|--------------------------|


--------------------------|--------------------------|
--------------------------|--------------------------|
--------------------------|--------------------------|
--4--2--------------------|--------------------------|
--------------------2--2--|--4--2--------------2--2--|
--------0--0--3--4--------|--------0--0--3--4--------|


--------------------------|--------------------------|
--------------------------|--------------------------|
--------------------------|--------------------------|
--------4--4-----2--4--4--|--6--4--------------2--2--|
--4--2--------4-----------|--------0--0--3--4--------|
--------------------------|--------------------------|


--------------------------|-------------------------|
--------------------------|-------------------------|
--------------------------|-------------------------|
--4--2--------------------|-------------------------|
--------------------2--2--|--4--2--4--2-----2----2--|
--------0--0--3--4--------|--------------4----------|


        Organ solo                                            
----------------------------------|--------------------------|
----------------------------------|--------------------------|
----------------------------------|--------------------------|
----------------------------------|--------------------------|
--4--2----------------------2--2--|--4--2--------------2--2--|
--------0----------0--3--4--------|--------0--0--3--4--------|


--------------------------|----------------------------|
--------------------------|--------/3--3--3--3---------|
--------------------------|--------/4--4--4--4--\2--0--|
--------------------------|----------------------------|
--4--2--------------2--2--|--4--2----------------------|
--------0--0--3--4--------|----------------------------|


--------------------------|--------------------------|
--------------------------|--------------------------|
--------------------------|--------------------------|
--2--0--------------2--2--|--4--2--------------2--2--|
--------0--0--3--4--------|--------0--0--3--4--------|
--------------------------|--------------------------|


--------------------------|-------------------------|--------------------------|
--------------------------|-------------------------|--------------------------|
--------------------------|-------------------------|--------------------------|
--4--2--------------------|-------------------------|--------4--4-----2--4--4--|
--------------------2--2--|--4--2--4--2-----2----2--|--4--2--------4-----------|
--------0--0--3--4--------|--------------4----------|--------------------------|


--------------------------|--------------------------|-------------------------|
--------------------------|--------------------------|-------------------------|
--------------------------|--------------------------|-------------------------|
--6--4--------------2--2--|--4--2--------------------|-------------------------|
--------0--0--3--4--------|--------------------2--2--|--4--2--4--2-----2----2--|
--------------------------|--------0--0--3--4--------|--------------4----------|


--------------------------|--------------------------|
--------------------------|--------------------------|
--------------------------|--------------------------|
--------------------------|--------------------------|
--4--2--------------2--2--|--4--2--------------2--2--|
--------0--0--3--4--------|--------0--0--3--4--------|


--------------------------|--------/0--0--0--0--0--0--|
--------------------------|--------/5--5--5--5--5--5--|
--------------------------|---------4--4--4--4--4--4--|
--------------------------|---------------------------|
--4--2--------------2--2--|--4--2---------------------|
--------0--0--3--4--------|---------------------------|


--0--0--------------------|--------------------------|
--3--0--------------------|--------------------------|
--------------------------|--------------------------|
--------------------2--2--|--4--2--------------2--2--|
--------0--0--3--4--------|--------0--0--3--4--------|
--------------------------|--------------------------|


--------------------------|-------------------------|--------------------------|
--------------------------|-------------------------|--------------------------|
--------------------------|-------------------------|--------------------------|
--4--2--------------------|-------------------------|--------4--4-----2--4--4--|
--------------------2--2--|--4--2--4--2-----2----2--|--4--2--------4-----------|
--------0--0--3--4--------|--------------4----------|--------------------------|


--------------------------|--------------------------|-------------------------|
--------------------------|--------------------------|-------------------------|
--------------------------|--------------------------|-------------------------|
--6--4--------------2--2--|--4--2--------------------|-------------------------|
--------0--0--3--4--------|--------------------2--2--|--4--2--4--2-----2----2--|
--------------------------|--------0--0--3--4--------|--------------4----------|


        Verse 4                                            
-------------------------------|--------------------------|
-------------------------------|--------------------------|
-------------------------------|--------------------------|
-------------------------------|--------------------------|
--4--2-------------------2--2--|--4--2--------------2--2--|
--------0-------0--3--4--------|--------0--0--3--4--------|


--------------------------|---------------------------|
--------------------------|--------/3--3--3--3--3--3--|
--------------------------|--------/4--4--4--4--4--4--|
--------------------------|---------------------------|
--4--2--------------2--2--|--4--2---------------------|
--------0--0--3--4--------|---------------------------|


        Chorus                                            
------------------------------|--------------------------|
--3--3------------------------|--------------------------|
--4--4------------------------|--------------------------|
------------------------2--2--|--4--2--------------2--2--|
--------0------0--3--4--------|--------0--0--3--4--------|
------------------------------|--------------------------|


--------------------------|--------------------------|
--------------------------|--------------------------|
--------------------------|--------------------------|
--4--2--------------------|--------------------------|
--------------------2--2--|--4--2--------------2--2--|
--------0--0--3--4--------|--------0--0--3--4--------|


--------------------------|--------------------------|
--------------------------|--------------------------|
--------------------------|--------------------------|
--------4--4-----2--4--4--|--6--4--------------2--2--|
--4--2--------4-----------|--------0--0--3--4--------|
--------------------------|--------------------------|


--------------------------|-------------------------|--------------------------|
--------------------------|-------------------------|--------------------------|
--------------------------|-------------------------|--------------------------|
--4--2--------------------|-------------------------|--------------------------|
--------------------2--2--|--4--2--4--2-----2----2--|--4--2--------------2--2--|
--------0--0--3--4--------|--------------4----------|--------0--0--3--4--------|


--------------------------|--------------------------|
--------------------------|--------------------------|
--------------------------|--------------------------|
--------------------------|--------------------------|
--4--2--------------2--2--|--4--2--------------2--2--|
--------0--0--3--4--------|--------0--0--3--4--------|


--------------------------|--------------------------|
--------------------------|--------------------------|
--------------------------|--------------------------|
--------------------------|--------2--2--------2--2--|
--4--2--------------2--2--|--4--2--------3--4--------|
--------0--0--3--4--------|--------------------------|


--------------------------|--------------------------|
--------------------------|--------------------------|
--------------------------|--------------------------|
--4--2--------------2--2--|--4--2--------------------|
--------0--0--3--4--------|--------------------2--2--|
--------------------------|--------0--0--3--4--------|

 
--------------------------|--------------------------|-----------------------|
--------------------------|--------------------------|-----------------------|
--------------------------|--------------------------|--------2--------------|
--------------------------|--------4--4-----2--4--4--|--6--4--2--------------|
--4--2--------------2--2--|--4--2--------4-----------|--------0--------------|
--------0--0--3--4--------|--------------------------|-----------------------|


                                                                 ^   
----------------0--------|---------------------------|-----------0--------||
---------0--/5--5--3--0--|--3--3---------------------|-----------3--------||
-------------------------|--4--4--2--0---------------|-----------1--------||
-------------------------|--------------2--0h-2------|-----------0--------||
-------------------------|---------------------------|-----------2--------||
-------------------------|---------------------------|--------------------||










*Guitar solo*



                           
E|---------0--0--0--------|
B|-----0--/5-----5--------|
G|------------------------|
D|------------------------|
A|------------------------|
E|------------------------|

 
-----------------0--0--|--0--0--0------0--0--0--0--|--3--0--5--0--3--0---------|
--------------0--5--5--|--3--2--0--0--/5--5--5--5--|--5--5--5--5--5--5--/3--3--|
-----------------------|---------------------------|--------------------/4--4--|
-----------------------|---------------------------|---------------------------|
-----------------------|---------------------------|---------------------------|
-----------------------|---------------------------|---------------------------|

  
-------------------------|-------------------------|-------------------------|
--3--3--3----------------|-----3-----3-------------|-------------------------|
--4--4--4----2--0--2--0--|--2--4-----4----2--0--2--|--0---------0------------|
-------------------------|-------------------------|-------2---------2p-0----|
-------------------------|-------------------------|----------------------2--|
-------------------------|-------------------------|-------------------------|


----------------------------|------------------------------|
-------------------------5--|--5--5--3g5--3----------------|
--------0g2--0--4s--7----4--|--4--4----4--4--0g2--0--2--0--|
--0--2----------------------|------------------------------|
----------------------------|------------------------------|
----------------------------|------------------------------|


---------------------------|------------------------------|
---------------------------|-----------------12-----12----|
-----2b-----0--2--2b--0----|-----------------12--12g14----|
---------------------------|--2--0g2----------------------|
---------------------------|------------------------------|
---------------------------|------------------------------|


------------------------------|-----------------12---------|
--12----12--12----------------|-----------------12---------|
--14----14--12----------------|--12-14-12------------------|
---------------14---------14--|----------------------------|
------------------------------|----------------------------|
------------------------------|----------------------------|


---------------------------|----------------------------------|
---------------------------|----------------------------------|
-------------12--14--12----|---------------------12--12-------|
---------14----------------|--14---------12--14---------------|
---------------------------|------17g14-----------------------|
---------------------------|----------------------------------|


              |---3---|   |---3---|   
-------------------------------------|
-------------------------------------|
-------------12--14--14--14--14--14--|
---------14--------------------------|
-------------------------------------|
-------------------------------------|


                                                            v             v   
   |---3---|   |----3---|                                                     
-----------------------12-------------------|---------------x-------------x--|
-------------------12------15b----12--------|---------------x-------------x--|
--14--14--14--14b---------------------14pb--|--14--12--14---x-------------x--|
--------------------------------------------|--------------14----12--14--14--|
--------------------------------------------|--------------------------------|
--------------------------------------------|--------------------------------|


               v                                                 
---------------x----------------|-------------------------------|
---------------x----------------|----------------------------0--|
---------------x------------12--|---L------12--14b-----12----4--|
------12--14--14----12--14------|------14-----------------------|
--------------------------------|-------------------------------|
--------------------------------|-------------------------------|


------------0----0----0--|---0----0---0----0--3--0--|
--0--0--/5-------5-------|--/5-------/5-------5--5--|
--4--4-------------------|--------------------------|
-------------------------|--------------------------|
-------------------------|--------------------------|
-------------------------|--------------------------|


-----0-------------------------|--------------------------------|
--3--5---------12--12------12--|--12------12--12------12--------|
----------/12--12--12--12--12--|--12--12--12--12--12--12----16--|
-------------------------------|--------------------------------|
-------------------------------|--------------------------------|
-------------------------------|--------------------------------|


--------------------------------|-------------------------------|
--15--15--15----15--15--15--14--|--15--15--15----15--15--\5-----|
--16--16--16----16--16--16------|--16--16--16----16--16---------|
--------------------------------|-------------------------------|
--------------------------------|-------------------------------|
--------------------------------|-------------------------------|


--------0--0--0--0--0--0--|--0--0--0--2----0--3--0--|
-----0--5--5--5--5--5--5--|--3--2--0----------------|
--------------------------|-------------------------|
--------------------------|-------------------------|
--------------------------|-------------------------|
--------------------------|-------------------------|


----------------------------|------------------------------------|
--3--0----------------3-----|-----/12-----12--12--12-----12--12--|
--------2b--0--2s--4-----4--|-------------12--12--12--12g14--12--|
----------------------------|------------------------------------|
----------------------------|------------------------------------|
----------------------------|------------------------------------|


----------------15--15--15--15------|-------------------------------------|
----------------15--15--15--15------|-----12----12------------------------|
---------12---------------------12--|--12g14----12------------------------|
--14--12g14-------------------------|------------------14---------12--14--|
------------------------------------|----------------------17g14----------|
------------------------------------|-------------------------------------|


--------------------------------------|----------------------------------|
-------------12--12-----------12--12--|----------------------------------|
--12--12--12g14--12----12--12g14--12--|---------12--14--12---------------|
--------------------------------------|-----14----------------14---------|
--------------------------------------|---------------------------17g14--|
--------------------------------------|----------------------------------|


                  |---3---|   |----3---|                                      
--------------------------------------12--|---------12---------------||
-------------------------12-------12------|--15b--------12-----------||
-----------------12--14------14b----------|--------------------------||
--12--14-----14---------------------------|--------------------------||
------------------------------------------|--------------------------||
------------------------------------------|--------------------------||








Tablature Legend
----------------
L - tied note
x - dead note
g - grace note
(n) - ghost note
> - accentuded note
NH - natural harmonic
AH - artificial harmonic
TH - tapped harmonic
SH - semi harmonic
PH - pitch harmonic
h - hammer on
p - pull off
b - bend
br - bendRelease
pb - preBend
pbr - preBendRelease
brb - bendReleaseBend
\n/ - tremolo bar dip
\n - tremolo bar dive
-/n - tremolo bar Release up
/n\ - tremolo bar inverted dip
/n - tremolo bar return
-\n - tremolo bar Release down
S - shift slide
s - legato slide
/ -  slide into from below or out of upwards
\ -  slide into from above or out of downwards
~ - vibrato
W - wide vibrato
tr - trill
TP - tremolo picking
T - tapping
S - slap
P - pop
< - fade in
^ - brush up
v - brush down
Добавлено: 07.06.2012
Другие материалы по этой песне:

Страница создана 17.05.2012
http://primanota.ru/susan-tedeschi/i-fell-in-love-live-chords.htm
Привет, Гость.
Предлагаем пройти революционный курс по гитаре.
Подарок от PrimaNota.Ru, забирай!