PrimaNota.ru - самый крупный в мире бесплатный архив песенных текстов, аккордов, табулатур и нот


The Surftones - Cecilia Ann - таба, видео

Регистрация Запомнить меня
Войти через:  Facebook Google Twitter Vk Yandex Mail.ru

The Surftones - Cecilia Ann - таба, видео

Печатать
Просмотров: 55
-------------------------------------------------------------------------------
                             CECILIA ANN - The Surftones
-------------------------------------------------------------------------------
Tabbed by: cjog210
E-mail: cjog210@gmail.com

Tuning: Standard

e|---------------------------------------------------------------------------|
B|---------------------------------------------------------------------------|
G|---------------------------------------------------------------------------|
D|-------------------------2~--2-2/5~--4-2-4~---------------------2~--2-2/5--|
A|-------------------2----2------------------0~-2-0~--0-2~~--2---2-----------|
E|----0-0-0-0-0-0-0-0-0~-----------------------3-----3---------0-------------|

e|------------------------0~~~-----------------------------------------------|
B|------------------------0~~~-----------------------------------------------|
G|------------------------0~~~-----------------------------------------------|
D|--4-2-4~----------------2~~~------2--2/5~--7-9-7~--5-4-2~----2-2/5~--7-9-7-|
A|----------0~---0-2-0----2~~~-----------------------------------------------|
E|--------------3-----3-2-0~~~-----------------------------------------------|

e|---------------------------|
B|-------------------------o-|
G|---------------------------|
D|--5-4--7/9-7-5-4-7-5-4-----|
A|-------------------------o-|
E|---------------------------|

e|------------------0~~-------------------------------------------------------|
B|--1---1p0---------0~~--1---1-0-----0-0-0------------------------------------|
G|-----------2-0----0~~----------2-0------2-2-2-2-2-2-0-0-0-0-0-----------2-2-|
D|--------------2~--2~~-----------------------------------------4-4-4-4-4-----|
A|------------------2~~-------------------------------------------------------|
E|------------------0~~-------------------------------------------------------|

e|---------------------------------------------------------------------------|
B|----------------------------------5~-5-5/8~-7-5-7~----------------------5--|
G|-2-2-2-0-0-0-0-0-0---------------4-----------------2~--4-2~--2-4~--4---4---|
D|-------------------4-4-4-3-3-3-2----------------------5-----5--------2~----|
A|---------------------------------------------------------------------------|
E|---------------------------------------------------------------------------|

e|---------------------------------------------------------------------------|
B|--5~-5-5/8~-7-5-7~---------------------------------------------------------|
G|-------------------2~--2-4-2-------------2~--2-4-2-------------------------|
D|----------------------5-----5-4-2~----------5-----5-4-2b0b2----------------|
A|-----------------------------------2p0-------------------------------------|
E|--------------------------------------0~-----------------------------------|




************************************

| /   slide up
| \   slide down
| h   hammer-on
| p   pull-off
| ~   vibrato
| +   harmonic
| x   Mute note
| b   Bend
| pb  Pre-bend
| br  Bend release
| pbr Pre-bend release
| brb Bend release bend

************************************
Добавлено: 11.12.2015
Другие материалы по этой песне:
  • Аккорды и текст

Страница создана 11.12.2015
http://primanota.ru/surftones/cecilia-ann-chords.htm
Привет, Гость.
Предлагаем пройти революционный курс по гитаре.
Подарок от PrimaNota.Ru, забирай!