PrimaNota.ru - самый крупный в мире бесплатный архив песенных текстов, аккордов, табулатур и нот


Surfer Blood - I Cant Explain - аккорды и текст, видео

Регистрация Запомнить меня
Войти через:  Facebook Google Twitter Vk Yandex Mail.ru

Surfer Blood - I Cant Explain - аккорды и текст, видео

Печатать
Просмотров: 47
I Cant Explain
Surfer Blood
E
On a new year's eve
B
Celebrations full of life
E
At a loss for words
B
And eye contact throughout the night
E
lost in a game we play
B
faces trying to look sincere
E
But it's alright tonight
B
If I never stray too far from here

E                               B
I can't explain, I can't explain
E                               B
I can't explain, I can't explain

E
We're a rare isotope
D#m
Not commonly found in cities like these
E
Ordinary words on
D#m
Methylenedioxymethamphetamine
E
You're the girl of my dreams
D#m
Trapped within my false awakenings
E
Forgotten yet unsure
D#m
Reoccuring first meeting

         E 
If we're nothing
F#           B
disguised as something
                        E
I can almost taste your lips
F#                     B
Our eyes close in full eclipse
              E
Your taste is sour
F#          B
With bitter powder
                     E
If I could open your mind
F#            B
And hold me inside

              E
And open your mind  
              B
And open your mind   
              E
And open your mind
              B
And open your mind

              E
And open your mind
              B
And open your mind
              E
And open your mind
              B
And open your mind


Outro: E  B

************************************


>INTRO TAB<

e|-----------------|x4   ------------------|
B|-----------------|     ------------------|
G|-11b13----13br11~|     -11b13----13b16~--|
D|-----------------|     ------------------|
A|-----------------|     ------------------|
E|-----------------|     ------------------|

>CHORUS TAB<

e|--------------------------------------------------------|
B|--------------------------------------------------------|
G|--------------------------------------------------------|
D|-1----------1-------------------------------------------|
A|---4-2--------4-2------4--4-4-4-6-4-----4--4-4-4-6-4----|
E|-------0----------0------------------7----------------7-|


>OUTRO TAB<

e|-7--7------7--------9-----7--7------9-------11---|
B|-9--9---------------------7--7----7---7-7/9----9-|
G|-9--9----9---9-9/11---11--8--8-------------------|
D|-------------------------------------------------|
A|-------------------------------------------------|
E|-------------------------------------------------|


************************************

| /   slide up
| ~   vibrato
| b   Bend
| br  Bend release

************************************
Добавлено: 20.11.2015
Другие материалы по этой песне:
  • Аккорды и текст

Страница создана 20.11.2015
http://primanota.ru/surfer-blood/i-cant-explain-chords.htm
Привет, Гость.
Предлагаем пройти революционный курс по гитаре.
Подарок от PrimaNota.Ru, забирай!