PrimaNota.ru - самый крупный в мире бесплатный архив песенных текстов, аккордов, табулатур и нот


Surf Curse - The Smell Saved My Life - таба, видео

Регистрация Запомнить меня
Войти через:  Facebook Google Twitter Vk Yandex Mail.ru

Surf Curse - The Smell Saved My Life - таба, видео

Печатать
Просмотров: 109
Surf Curse - The Smell Saved My Life
Track 6 from the album "Buds" (2013).

Listen to it here:
https://www.youtube.com/watch?v=dPWJUVwkyv8

Tabbed by Isaac Murguia, July 2015.
Originally uploaded to Ultimate-Guitar.com
Contact: www.youtube.com/user/Goadiroth

INTRO:
e|-3----3----3----3----|
B|-3----3----3----3----|
G|-4----4----4----4----|
D|-5----5----5----5----|
A|-5----5----5----5----|
E|-3----3----3----3----| [x5]

VERSE: (listen to song for strumming patterns)
e|-3----7----3----7----|
B|-3----8----3----8----|
G|-4----9----4----9----|
D|-5----9----5----9----|
A|-5----7----5----7----|
E|-3---------3---------| [x2]

CHORUS: "ooo ooo oo oo oo oo ooh"
e|-33333333-33333333-|
B|-33333333-33333333-|
G|-44444444-44444444-|
D|-55555555-55555555-|
A|-55555555-55555555-|
E|-33333333-33333333-| [x4]

Repeat VERSE [x3]
Repeat CHORUS [x4]

LAST CHORD:
e|-3-------|
B|-3-------|
G|-4-------|
D|-5-------|
A|-5-------|
E|-3-------|

End. Please rate! :D
Добавлено: 02.10.2015
Другие материалы по этой песне:
  • Аккорды и текст

Страница создана 02.10.2015
http://primanota.ru/surf-curse/smell-saved-my-life-chords.htm
Привет, Гость.
Предлагаем пройти революционный курс по гитаре.
Подарок от PrimaNota.Ru, забирай!