PrimaNota.ru - самый крупный в мире бесплатный архив песенных текстов, аккордов, табулатур и нот


Surf Curse - Forever Dumb - таба, видео

Регистрация Запомнить меня
Войти через:  Facebook Google Twitter Vk Yandex Mail.ru

Surf Curse - Forever Dumb - таба, видео

Печатать
Просмотров: 263
Surf Curse - Forever Dumb
Track 6 from the "Sad Boys" EP (2013).

Tabbed by Isaac Murguia, January 2015.
Originally uploaded to Ultimate-Guitar.com
Contact: www.youtube.com/user/Goadiroth

For the chords, listen to the song for strumming patterns!

INTRO/VERSE: [x4]
  Lead
e|-------------|      |-----------|
B|-------------|      |-----------|
G|-----4-------|      |-----------|
D|-4h6---6-666-|      |-222-4-444-|
A|-------------|      |-----------|
E|-------------| [x4] |-----------| [x4]
  Rhythm
e|-0------5-----|
B|-0------5-----|
G|-1------6-----|
D|-2------7-----|
A|-2------7-----|
E|-0------5-----| [x4]

CHORUS:
  Lead
e|------------------------------------------|      |------------|
B|------------------------------------------|      |------------|
G|------------------------4-----------------|      |------------|
D|-4--2-4-/-9999-6----4h6---6-666-6666-666--|      |-4--2-4-/-9-|
A|------------------------------------------|      |------------|
E|------------------------------------------| [x3] |------------|
  Rhythm                "...and none of them make much sense"
e|-4----7----0----0--|      |-4----7-----|
B|-5----7----0----0--|      |-5----7-----|
G|-6----8----1----1--|      |-6----8-----|
D|-6----9----2----2--|      |-6----9-----|
A|-4----9----2----2--|      |-4----9-----|
E|------7----0----0--| [x3] |------7-----|

Repeat INTRO/VERSE
Repeat CHORUS

OUTRO:
e|-0----4----|       |-0------|
B|-0----5----|       |-0------|
G|-1----6----|       |-1------|
D|-2----6----|       |-2------|
A|-2----4----|       |-2------|
E|-0---------| [x10] |-0------|

End. Please rate! :D
Добавлено: 05.03.2015
Другие материалы по этой песне:
  • Аккорды и текст

Страница создана 05.03.2015
http://primanota.ru/surf-curse/forever-dumb-chords.htm
Привет, Гость.
Предлагаем пройти революционный курс по гитаре.
Подарок от PrimaNota.Ru, забирай!