PrimaNota.ru - самый крупный в мире бесплатный архив песенных текстов, аккордов, табулатур и нот


Supremes - When The Lovelight Shines Through His Eyes - бас-таба, видео

Регистрация Запомнить меня
Войти через:  Facebook Google Twitter Vk Yandex Mail.ru

Supremes - When The Lovelight Shines Through His Eyes - бас-таба, видео

Печатать
Просмотров: 50
When The Lovelight Shines Through His Eyes
A Holland Dozier Holland track released by The Supremes in 1963 and 
A USA hit only. Bass performance James Jamerson. Tab by bass50611.
Welcome to my tab. It's as near The Master's bass line as I can get 
It. Comments at bass254@btinternet.com 

Intro:
G|---------------------------------------------------------
D|----5-6-5----------------------5-6-5---------------------
A|-6-8-----8---6--6-6--6--6---6-8-----8---6--6-6--6--6-----
E|-------------------------8---------------------------8-8-

G|--------------------------
D|-6--6-6--6-6--------------
A|--------------------------
E|-------------8--8-8---6-6-

Verse 1:
G|----------------------------------------------------------
D|----------------------------------------------------------
A|-6--6-6--6-6-6---6--6-6--6-6-6---------------3--3-3-------
E|------------------------------4--4-4--4-4-4--------6--6-6-

                                                              (Break)
G|------------------------------------------------------------------
D|------------------------------------------------------------------
A|-6--6-6--6-6-6---6--6-6--6-6-6--------------3--3-3-------6--6-6-6-
E|------------------------------4--4-4--4-4-4-------6--6-6----------

Chorus 1:
G|-----------------------------------------------------------------
D|----5-6-5----------------------5-6-5----------------------5-6-5--
A|-6-8-----8---6--6-6--6--6---6-8-----8---6--6-6--6--6---6-8-----8-
E|-------------------------8--------------------------8------------

G|------------------------------------------------------------------
D------------------6--6-6--6-6--------------------------------------
A|-6--6-6--6-6----------------------------6--6-6--6-6---6--6-6--6-6-
E|-------------8-8-------------8--8-8--8-8--------------------------

Verse 2:
G|---------------------------------------------------------
D|---------------------------------------------------------
A|-6--6-6--6-6-6---6--6-6--6-6-6--------------3--3-3-------
E|------------------------------4--4-4--4-4-4-------6--6-6-

G|---------------------------
D|---------------------------
A|-6--6-6--6-6-6---6--6-6-66-
E|---------------------------

Chorus 2:
G|-----------------------------------------------------------------
D|----5-6-5----------------------5-6-5----------------------5-6-5--
A|-6-8-----8---6--6-6--6--6---6-8-----8---6--6-6--6--6---6-8-----8-
E|-------------------------8--------------------------8------------

G|-------------------------------------------------------------------
D-----------------6--6-6--6-6----------------------------------------
A|-6--6-6--6-6---------------------------6--6-6--6-6---6--6-6--6-6-6-
E|------------8-8-------------8--8-8--8-8----------------------------

Bridge:
G|---------------------------------------------------------
D|---------------------------------------------------------
A|-6--6-6--6-6---6--6-6--6-6---6--6-6--6-6---6--6-6--6-6-6-
E|---------------------------------------------------------

Verse 3:
G|---------------------------------------------------------
D|---------------------------------------------------------
A|-6--6-6--6-6-6---6--6-6--6-6-6--------------3--3-3-------
E|------------------------------4--4-4--4-4-4-------6--6-6-

G|---------------------------
D|---------------------------
A|-6--6-6--6-6-6---6--6-6-66-
E|---------------------------


Chorus 3:
G|-----------------------------------------------------------------
D|----5-6-5----------------------5-6-5----------------------5-6-5--
A|-6-8-----8---6--6-6--6--6---6-8-----8---6--6-6--6--6---6-8-----8-
E|-------------------------8--------------------------8------------

G|----------------------------------------------------------------
D------------------6--6-6--6-6------------------------------------
A|-6--6-6--6-6----------------------------6--6-6--6-6---6--6-6-66-
E|-------------8-8-------------8--8-8--8-8------------------------

Repeat Chorus 3 To Fade/End:
Добавлено: 25.04.2016
Другие материалы по этой песне:
  • Аккорды и текст

Страница создана 25.04.2016
http://primanota.ru/supremes/when-lovelight-shines-through-his-eyes-chords.htm
Привет, Гость.
Предлагаем пройти революционный курс по гитаре.
Подарок от PrimaNota.Ru, забирай!