PrimaNota.ru - самый крупный в мире бесплатный архив песенных текстов, аккордов, табулатур и нот


Supremes - Love Is Here And Now You're Gone - текст песни, бас-таба, видео

Регистрация Запомнить меня
Войти через:  Facebook Google Twitter Vk Yandex Mail.ru

Supremes - Love Is Here And Now You're Gone - текст песни, бас-таба, видео

Печатать
Просмотров: 131
Love is Here and Now Youre Gone
Released by Diana Ross & The Supremes in 1967 number 1 in the States
and number 17 here in UK.
Bass performance James Jamerson
Tab by bass50611. Jamersons bass line is superb playing mainly
across the chords. For me one of his best and a rare one too.
He plays above the 5th fret!!!
Any comments its bass254@btinternet.com
Have fun ~ its a very fast and furious bass line and note the
semi tone de-tuning enables one to play to the original recording.

Intro:
F#|---------------------------|
C#|-2-------2345--------------|
G#|-----012------2345--4567-7-|
D#|---4-----------------------|

Verse:
F#|-----9-9-----------9-9-----------------------------------|
C#|------9-9-----------9-9----2-444----4--------------7-----|
G#|-777-----7---5-777-----7-----------4-4------------7-7----|
D#|----------------------------------2----2---3-5555-----5--|

F#|-------9-9-----------9-9----------------------------------|
C#|--------9-9-----------9-9----2-444----4-------------7-----|
G#|-5-777-----7---5-777-----7-----------4-4-----------7-7----|
D#|-----------------------------------2----2---3-5555-----5--|

F#|------------------------------------7-7-----------7-7---|
C#|--666---6-4--------------------------7-7-----------7-7--|
G#|-6---6-6---6---777-4---777-4----555-----5---3-555-----5-|
D#|--------------------7-------7---------------------------|

F#|-----------------------2----------8-8-----------7-7-----------------|
C#|-1-333--3-----0-222-4-2-4-2--------8-8-----------7-7---222222222222-|
G#|-------3-3--------------------666-----6---3-555-----5---------------|
D#|------1---1---------------------------------------------------------|

F#|---------------------------|
C#|-2-------2345--------------|
G#|-----012------2345--4567-7-|
D#|---4-----------------------|

Repeat Verse a further Twice.

Outro                                  (REPEAT TO END/FADE)
F#|-------9-9-----------9-9--------------------------------|
C#|--------9-9-----------9-9----2-444----4-------------7---|
G#|-5-777-----7---5-777-----7-----------4-4-----------7-7--|
D#|-----------------------------------2----2---3-5555----5-|

If it helps, have a listen to Basil Fearingtons recording of this bass line found
on the CDs within the autobiography about Jamersons life
Standing on The Shadows of Motown. Its just him playing and this is also
de-tuned as well..
Добавлено: 20.08.2013
Другие материалы по этой песне:
  • Аккорды и текст

Страница создана 23.06.2012
http://primanota.ru/supremes/love-is-here-and-now-youre-gone-chords.htm
Привет, Гость.
Предлагаем пройти революционный курс по гитаре.
Подарок от PrimaNota.Ru, забирай!