PrimaNota.ru - самый крупный в мире бесплатный архив песенных текстов, аккордов, табулатур и нот


Supremes - In And Out Of Love - текст песни, бас-таба, видео

Регистрация Запомнить меня
Войти через:  Facebook Google Twitter Vk Yandex Mail.ru

Supremes - In And Out Of Love - текст песни, бас-таба, видео

Печатать
Просмотров: 64
Уроки эстрадного вокала в Санкт-Петербурге
In And Out Of Love
Released by Diana Ross & The Supremes in 1967, reached number 13
Here in the UK. Tab by bass50611. Welcome to my tab of this classic
Song tabbed from the original release and not what's on youtube.
Isn't 100% exact but it does fit. This is one the very few Motown
Songs not having the Funk Brothers as backing. Very Nice melody
Pleasant song to play along to. Comments at bass254@btiternet.com

Intro:
G|-----------------------|
D|----------10--10--10---|
A|-----10---------10--10-|
E|-8---------------------|

Chorus 1:
G|----------------------------------------------------------------|
D|----------10--10--10-----------10--10--10----------10--10--10---|
A|-----10---------10--10-----10--------10--10----10--------10--10-|
E|-8----------------------8-------------------8-------------------|

Verse 1:
G|----------------------------------------------------------3-3-----|
D|--------7-7-7-----------7-7-----------------------5-5---------5-5-|
A|-8-8-8-----7----5-5-5-5-----5-5---------8-8-----------5-5---------|
E|----8---------------------------6-6-6-6-----6-6-------------------|

Chorus 2:
G|----------------------------------------------------------------|
D|----------10--10--10-----------10--10--10----------10--10--10---|
A|-----10---------10--10-----10--------10--10----10--------10--10-|
E|-8----------------------8-------------------8-------------------|

G|-----------------------|
D|----------10--10--10---|
A|-----10---------10--10-|
E|-8---------------------|

Repeat Verse 1:

Bridge: (Play Bridge x2)
G|----------------------------------------------------|
D|----------------------5-5---2-5-2---3--3-3---3--3-3-|
A|-1--1-1---1--1-1---3-3-----3------------3--------3--|
E|-----1--------1-------------------------------------|

G|-------------------|
D|---------------5-5-|
A|-5-5-5-5---6-6-----|
E|-------------------|

Repeat Chorus 2:

Verse 3:
G|------------------------------------------------------------------|
D|--------7-7-7----------7-7--------------5-5---------------5-5-----|
A|-8-8-8-----7---5-5-5-5----5-5---3-3-3-3-----3-3---3-3-3-3-----3-3-|
E|----8-------------------------------------------------------------|

Chorus 3:
G|----------------------------------------------------------------|
D|----------10--10--10-----------10--10-10-----------10--10--10---|
A|-----10---------10--10-----10--------10--10----10--------10--10-|
E|-8---------------------8--------------------8-------------------|

Repeat Verse 1:

Repeat Bridge: (x2)

Outro:                                         (Repeat To Fade/End)
G|----------------------------------------------------------------|
D|----------10--10--10-----------10--10-10-----------10--10--10---|
A|-----10---------10--10-----10--------10--10----10--------10--10-|
E|-8---------------------8--------------------8-------------------|
Добавлено: 15.09.2015
Другие материалы по этой песне:
  • Аккорды и текст

Страница создана 08.04.2012
http://primanota.ru/supremes/in-and-out-of-love-chords.htm
Привет, Гость.
Предлагаем пройти революционный курс по гитаре.
Подарок от PrimaNota.Ru, забирай!