PrimaNota.ru - самый крупный в мире бесплатный архив песенных текстов, аккордов, табулатур и нот


Supremes - Ask Any Girl - текст песни, бас-таба, видео

Регистрация Запомнить меня
Войти через:  Facebook Google Twitter Vk Yandex Mail.ru

Supremes - Ask Any Girl - текст песни, бас-таба, видео

Печатать
Просмотров: 105
Уроки эстрадного вокала в Санкт-Петербурге
Авторы музыки: Lamont Dozier, Brian Holland
Авторы текста: Edward Holland, Jr.
Ask Any Girl
Released by The Supremes on the B side of Baby Love in 1964.
Bass performance James Jamerson with his upright bass.
Tab by bass50611.  I think more or less as original.
Comments at bass254@btinternet.com

Intro:
     .          .         .          .             .
G|---------------------------------------------------|
D|---------------------------------------------------|
A|---------------------------------------------------|
E|---8----------6---------8---------10-------------3-|

G|-----------------------------------------|
D|-----------------------------------------|
A|--3-33-3-3---3--0-0----3-33-3-3---3--0-0-|
E|--------3--------------------3-----------|

Verse:                                   [  Play Quavers  ]
G|---------------------------------------------------------|
D|--------------------7-77-7---7-77-7----------------------|
A|-3-33-3-3--3-33-3-1-----7-7------7-7---55555555-55555555-|
E|-------3-------------------------------------------------|

                                         [Quavers]
G|-----------------------------------------------------------|
D|-5-55-5-5---5-55-5-----------7-77-7---------------5-55-5---|
A|-------5----------5-3-33-3-1-----7-7---55555555-------5-5--|
E|-----------------------------------------------------------|
                     [Quavers]
G|----------------------------------------|
D|-------------------------------5-55-5---|
A|-3-33-3---3-33-3----55555555-------5-5--|
E|-----3-3------3-3-----------------------|

Repeat Verse:

Bridge 1:                                [  Play Quavers  ]
G|---------------------------------------------------------|
D|--------------------7-77-7---7-77-7----------------------|
A|-3-33-3-3--3-33-3-1-----7-7------7-7---55555555-55555555-|
E|-------3-------------------------------------------------|


G|---------------------------------------------------|
D|-5-55-5-5---5-55-5---------------------------------|
A|-------5----------5-3-3-0-0-3--0-0--3-3-0-0-3--0-0-|
E|---------------------------------------------------|

Repeat Verse:

Bridge 2:            [Quavers]
G|----------------------------------------|
D|-------------------------------5-55-5---|
A|-3-33-3---3-33-3----55555555-------5-5--|
E|-----3-3------3-3-----------------------|

Repeat Verse To Fade/End:
Добавлено: 15.09.2015
Другие материалы по этой песне:
  • Аккорды и текст

Страница создана 18.05.2012
http://primanota.ru/supremes/ask-any-girl-chords.htm
Привет, Гость.
Предлагаем пройти революционный курс по гитаре.
Подарок от PrimaNota.Ru, забирай!