PrimaNota.ru - самый крупный в мире бесплатный архив песенных текстов, аккордов, табулатур и нот


Supertramp - Casual Conversations - бас-таба, видео

Регистрация Запомнить меня
Войти через:  Facebook Google Twitter Vk Yandex Mail.ru

Supertramp - Casual Conversations - бас-таба, видео

Печатать
Просмотров: 93
Авторы музыки: Roger Hodgson, Rick Davies
Авторы текста: Roger Hodgson, Rick Davies
Casual Conversations by Supertramp
From their album, Breakfast in America
Tabbed by Norman

(Verse)
G|----------------|----------------|----------------|--------7--7-7/-|
D|----------------|----------------|----------------|----------------|
A|----------------|----------------|----------------|----------------|
E|3--3-3--3--3-3--|7--7-7--6/-2-2--|5--5-5--5--5-5--|3--3-3----------|

G|----------------|----------------|----------------|----------------|
D|----------------|----------------|----------------|----------------|
A|----------------|----------------|----------------|------2-5--5-5--|
E|3--3-3--3--3-3--|7--7-7--6/-2-2--|5--5-5--5--5-5--|3--3-3----------|

(Chorus)
G|------------------------|------------------------|
D|----------------2-5--/--|----------------2-4--3--|
A|----3-7--/----3---------|----2-5--/--2-5---------|
E|5-5---------3-----------|3-3---------------------|

G|------------------------|------------------------|
D|------2--/------2-5--/--|----------------2-4/----|
A|0-0-3---------3---------|----2-5--/--2-5---------|
E|------------3-----------|3-3------------------3-4|

G|------------------------|--------------------|----------------------------9-10-11-/-|
D|----------------2-5--/--|--------------------|---------------------7/9/7------------|
A|----3-7--/----3---------|5-6-7---------------|---------------4-5--------------------|
E|5-5---------3-----------|---------7-0----2-3-|5--5-5--5--5-5------------------------|


(Verse)
G|----------------|----------------|----------------|----------------|
D|----------------|----------------|----------------|----------------|
A|----------------|----------------|----------------|--------5--5-5--|
E|3--3-3--3--3-3--|7--7-7--6/-2-2--|5--5-5--5--5-5--|3--3-3----------|

(Sax Solo)
G|-------------------|-------------------|----------------|----------------|
D|-------------------|-------------------|----------------|----------------|
A|-------------------|-------------------|----------------|--------5--5-5--|
E|3--3-3--3--3-3--3-5|7--7-7--6/-2-2--2-3|5--5-5--5--5-5--|3--3-3----------|

(Chorus)
G|------------------------|------------------------|
D|----------------2-5--/--|----------------2-4--3--|
A|----3-7--/----3---------|----2-5--/--2-5---------|
E|5-5---------3-----------|3-3---------------------|

G|------------------------|------------------------|
D|------2--/------2-5--/--|----------------2-4/----|
A|0-0-3---------3---------|----2-5--/--2-5---------|
E|------------3-----------|3-3------------------3-4|

G|------------------------|-------/9----------------|-------------------------2--2h4--11-/--|
D|----------------2-5--/--|----------9--------------|----------------------/4---------------|
A|----3-7--/----3---------|0-6-7-------7------------|---------------2-3-5-------------------|
E|5-5---------3-----------|--------------7-0--0--2-3|5--5-5--5--5-5-------------------------|

(Verse)
G|----------------|----------------|----------------|----------------|----------------|--------------|-----|
D|----------------|----------------|----------------|----------------|----------------|--------------|-----|
A|----------------|----------------|----------------|--------5--5-5--|--------5--5-5-/|--------5-----|-----|
E|3--3-3--3--3-3--|7--7-7--6/-2-2--|5--5-5--5--5-5--|3--3-3----------|3--3-3----------|3--3-3--------|/3---|
Добавлено: 29.10.2015
Другие материалы по этой песне:
  • Аккорды и текст

Страница создана 29.10.2015
http://primanota.ru/supertramp/casual-conversations-chords.htm
Привет, Гость.
Предлагаем пройти революционный курс по гитаре.
Подарок от PrimaNota.Ru, забирай!