PrimaNota.ru - самый крупный в мире бесплатный архив песенных текстов, аккордов, табулатур и нот


Supertones - strike back - аккорды и текст, бас-таба, видео

Регистрация Запомнить меня
Войти через:  Facebook Google Twitter Vk Yandex Mail.ru

Supertones - strike back - аккорды и текст, бас-таба, видео

Печатать
Просмотров: 130
strike back
Supertones



From: Benoit Admire 
Subject: s/supertones/supertones_strike_back.crd
Date: Mon, 16 Nov 1998 15:22:16 PST

Song:Supertones Strike Back
Artist:The Supertones
Album:Supertones Strike Back
Copyright: 1997 Bec Records
Tab by: Brett Admire (Guitarstud15@hotmail.com)

E:--------------------------------------------------------------------
B:--------------------------------------------------------------------
G:------------9-------------9-7-------------9-------------9-7---------
D:-2-2-2-2-2--9--2-2-2-2-2--9-7--2-2-2-2-2--9--2-2-2-2-2--9-7---------
A:-2-2-2-2-2--7--2-2-2-2-2--7-5--2-2-2-2-2--7--2-2-2-2-2--7-5---------
E:-0-0-0-0-0-----0-0-0-0-0-------0-0-0-0-0-----0-0-0-0-0--------------
  (Palm Mute)      (pm)           (pm)           (pm)

E:--------------------------------------------------------------------
B:--------------------------------------------------------------------
G:------------9---9-------------9-7---7-------------9---9-------------
D:-2-2-2-2-2--9---9--2-2-2-2-2--9-7---7--2-2-2-2-2--9---9-------------
A:-2-2-2-2-2--7---7--2-2-2-2-2--7-5---5--2-2-2-2-2--7---7-------------
E:-0-0-0-0-0---------0-0-0-0-0-----------0-0-0-0-0--------------------

E:--------------------------------------------------------------------
B:--------------------------------------------------------------------
G:------------9-7---7-------------------------------------------------
D:-2-2-2-2-2--9-7---7-------9-7-5-2----------------------------------- 
A:-2-2-2-2-2--7-5---5-------9-7-5-2-----------------------------------
E:-0-0-0-0-0----------------7-5-3-0-----------------------------------

Supertones Strike Back...

This Song rules

Verse 1

A                C           D
Just like Leia's Father, ...
     A                   C       D
Like Huss and Stephen, I am ...
A          C            D  
California Sun and Sky, slip ...
A              C                 D
Chevy rolls up to the ....
A         C            D
Gonna get down like we ...
A          C         D
Fifty more people be ...
A            C           D
Team against team, ...
           A            C                     D
If there's fifty people outside, ...
          A          C                D
And we're movin, all smooth and, ...
      A          C               D
we're fresh like salsa ....
       A         C               D
you're cranium's ...
   A         C     D    
protect your neck, ...


Chorus:
   A                            F#m
We want this ...
   D                      E
so we play the ska ....
      A                      F#m
God's got love for us, so ...
D                  E (hold it twice as long)
It's your life, so ....


A F#m D E (x2)


Verse 2:


                 A             C             D
So come on put a glide in your ...
     A             C       D
Best back the heck up, ...
  A           C           D
I spit when I rap, ...
A            C           D
God gives me gifts, ...
A            C      D
Look less at me and ...
A         C                D
Grace has saved me and ....
     A        C           D
So I jump for Jesus, ....
      A             C         D
Let's get dumb like Beavis, ....


Prechorus ():   (all power chords)
        A      E       F#             G
When we hop to hip ....
    A           E           F#                     G
You know he can rock socks, give ...
     A       E        F#        G
With hip hop nonstop, ...
A           E                F#         G
First I can rock them socks, ...
A         E          F#        G
You can't stop this, ....
A         E            F#           G
You can't dis this, so please ..
  A         E                F#         G
A van and a roadmap, keep my ....
A             E          F#         G
comin through your town, ....


Chorus (x2)


A F#m D E (x4)


end on A and hold out

______________________________________________________
Get Your Private, Free Email at http://www.hotmail.com


Добавлено: 26.01.2014
Другие материалы по этой песне:
  • Аккорды и текст

Страница создана 02.08.2013
http://primanota.ru/supertones/strike-back-chords.htm
Привет, Гость.
Предлагаем пройти революционный курс по гитаре.
Подарок от PrimaNota.Ru, забирай!