PrimaNota.ru - самый крупный в мире бесплатный архив песенных текстов, аккордов, табулатур и нот


Supertones - Adonai - таба, бас-таба, видео

Регистрация Запомнить меня
Войти через:  Facebook Google Twitter Vk Yandex Mail.ru

Supertones - Adonai - таба, бас-таба, видео

Печатать
Просмотров: 85
		   Song: "Adonai"
Artist: Supertones
Album: Adventures of the O.C Supertones
Copyright 1996 We Own Your Songs Publishing

Tab by: Evan Dickens
E-mail: stinger31@mailexcite.com

Remember, on the clean & funky parts, mute the downstrum and play the
upstrum.

The intro:

Alright Supertones, let's rock!

(distorted)
    E          D  E     F          G
e--------------------|-----------------|
B--------------------|-----------------|
G---9----------7--9--|--10---------12--|
D---9----------7--9--|--10---------12--|
A---7----------5--7--|--8----------10--|
E--------------------|-----------------| (just drums and bass for a few
bars, then...)

(clean & funky)
   E
e--------------------|
B--------------------|
G--x-9-x-9-x-9-x-9---|
D--x-9-x-9-x-9-x-9---|
A--x-7-x-7-x-7-x-7---|
E--------------------| (x24)

(distorted and muted)
   A
e--------------------|
B--------------------|
G--------------------|
D--7-----7-----------|
A--7-----7-----------|
E--5-----5-----------| (x4)

The distorted part, before vocals begin and also midway through second
verse:
   A                    D	     	     G			  A
e--------------------|--------------------|--------------------|--------------------|
B--------------------|--------------------|--------------------|--------------------|
G--------------------|--x-x-7---x-x-7-----|--------------------|--------------------|
D--x-x-7---x-x-7-----|--x-x-7---x-x-7-----|--x-x-5---x-x-5-----|--x-x-7---x-x-7-----|
A--x-x-7---x-x-7-----|--x-x-5---x-x-5-----|--x-x-5---x-x-5-----|--x-x-7---x-x-7-----|
E--x-x-5---x-x-5-----|--------------------|--x-x-3---x-x-3-----|--x-x-5---x-x-5-----|

Main riff of the song, repeated through verses and chorus, played clean
and funky:
   A                    D	     	     G			  A
e--x-5-x-5-x-5-x-5---|--x-2-x-2-x-2-x-2---|--x-3-x-3-x-3-x-3---|--x-5-x-5-x-5-x-5---|
B--x-5-x-5-x-5-x-5---|--x-3-x-3-x-3-x-3---|--x-3-x-3-x-3-x-3---|--x-5-x-5-x-5-x-5---|
G--x-6-x-6-x-6-x-6---|--x-2-x-2-x-2-x-2---|--x-4-x-4-x-4-x-4---|--x-6-x-6-x-6-x-6---|
D--x-7-x-7-x-7-x-7---|--------------------|--x-5-x-5-x-5-x-5---|--x-7-x-7-x-7-x-7---|
A--------------------|--------------------|--------------------|--------------------|
E--------------------|--------------------|--------------------|--------------------|

There, that was fun. Make sure you listen to the song to get the rhythm.
Any questions, comments, corrections, anything at all, I'd love to hear
from you. My e-mail address is stinger31@mailexcite.com, write me I beg
of you! :) God bless, and keep rockin' for Him.

~stinger~
     
Добавлено: 07.12.2013
Другие материалы по этой песне:
  • Аккорды и текст

Страница создана 29.07.2012
http://primanota.ru/supertones/adonai-chords.htm
Привет, Гость.
Предлагаем пройти революционный курс по гитаре.
Подарок от PrimaNota.Ru, забирай!