PrimaNota.ru - самый крупный в мире бесплатный архив песенных текстов, аккордов, табулатур и нот


Supernova - Chewbacca Song - таба, видео

Регистрация Запомнить меня
Войти через:  Facebook Google Twitter Vk Yandex Mail.ru

Supernova - Chewbacca Song - таба, видео

Печатать
Просмотров: 90
Guitar Intro
e-|--------------------------------------------------------------------|
b-|--------------------------------------------------------------------|
g-|-3-----4-3-4-6-----4--3--------4-3-0--------------------------------|
d-|-------------------------------------4------------------------------|
a-|--------------------------------------------------------------------|
e-|--------------------------------------------------------------------|

“Chewbacca!”
e-|-----------|
b-|-----------|
g-|-----------|
d-|-4---5--3--|
a-|-4---5--3--|
e-|-2---3--1--|

Main Riff
e-|-------------------------------------------------|
b-|-------------------------------------------------|
g-|-------------------------------------------------|
d-|-4-4-44-5-5-3-3--4-4-44-5-5-3-3--4-4-44-5-5-3-3--|
a-|-4-4-44-5-5-3-3--4-4-44-5-5-3-3--4-4-44-5-5-3-3--|
e-|-2-2-22-3-3-1-1--2-2-22-3-3-1-1--2-2-22-3-3-1-1--|
Добавлено: 05.07.2012
Другие материалы по этой песне:
  • Аккорды и текст

Страница создана 05.07.2012
http://primanota.ru/supernova/chewbacca-song-chords.htm
Привет, Гость.
Предлагаем пройти революционный курс по гитаре.
Подарок от PrimaNota.Ru, забирай!