PrimaNota.ru - самый крупный в мире бесплатный архив песенных текстов, аккордов, табулатур и нот


Supernova - Chewbacca - аккорды и текст, видео

Регистрация Запомнить меня
Войти через:  Facebook Google Twitter Vk Yandex Mail.ru

Supernova - Chewbacca - аккорды и текст, видео

Печатать
Просмотров: 70
Уроки эстрадного вокала в Санкт-Петербурге
Chewbacca
Supernova
supernova - Chewbacca
from Kevin Smith's "Clerks"

Transcribed by JAMES HEADLAM

Intro
e-|--------------------------------------|
b-|--------------------------------------|
g-|-3---3/4-3-4-6---4--3---3/4-3---------|
d-|------------------------------5-4-----|
a-|--------------------------------------|
e-|--------------------------------------|

Main Riff
e-|--------------------------------------|
b-|--------------------------------------|
g-|--------------------------------------|
d-|-4----5-3--4-4-4-----5-5-3-3----------|
a-|-4----5-3--4-4-4-----5-5-3-3----------|
e-|-2--0-3-1--2-2-2-0-0-3-3-1-1----------|
              |-----P.M.------|

Outro
e-|--------------------------------------|
b-|--------------------------------------|
g-|--------------------------------------|
d-|-4----5-3--4--------------------------|
a-|-4----5-3--4--------------------------|
e-|-2--0-3-1--2--------------------------|
    |--X8--|
     
Play with distortion and a little flange.

Snoochy Boochies!!!!!!!!!!!!!
     
Добавлено: 03.10.2013
Другие материалы по этой песне:

Страница создана 08.03.2012
http://primanota.ru/supernova/chewbacca-chords.htm
Привет, Гость.
Предлагаем пройти революционный курс по гитаре.
Подарок от PrimaNota.Ru, забирай!