PrimaNota.ru - самый крупный в мире бесплатный архив песенных текстов, аккордов, табулатур и нот


Supernova - Bad Hair Cut - таба, видео

Регистрация Запомнить меня
Войти через:  Facebook Google Twitter Vk Yandex Mail.ru

Supernova - Bad Hair Cut - таба, видео

Печатать
Просмотров: 79
Уроки эстрадного вокала в Санкт-Петербурге
Supernova
Bad Hair Cut
Transcribed by Reuben Gann (reubengann@hotmail.com)

Intro
|-----------------------------------------------------------------------|
|-----------------------------------------------------------------------|
|-----------------------------------------------------------------------|
|------5-5-7-7-7p5----------4-4-6-6-6h4--------3-3-5-5-5p3--------------|
|--7-7-------------7----6-6-------------6--5-5-------------5------------|
|-----------------------------------------------------------------------|

|-----------------------------------------------------------------------|
|-----------------------------------------------------------------------|
|-----------------------------------------------------------------------|
|------4-4-6-6-6p4------------------------------------------------------|
|--6-6-------------6----------------------------------------------------|
|-----------------------------------------------------------------------|

Riff 1
|-----------------------------------------------------------------------|
|-----------------------------------------------------------------------|
|----------7-7---------------6-6--------------5-5-------------6-6-------|
|------6-6-----8-8-------5-5-----7-7------4-4-----6-6-----5-5-----7-7---|
|--7-7--------------6-6---------------5-5-------------6-6---------------|
|-----------------------------------------------------------------------|

Verse 1:


Break 1       D           C#      B
|-----------------------------------------------------------------------|
|-----------------------------------------------------------------------|
|--------------------------------7-----------6-------4------------------|
|--------------------------------7-----------6-------4------------------|
|-7-7-7-7-7-7-7-7-7-7-continue---5-----------4-------2------------------|
|-----------------------------------------------------------------------|

I n..
D
I d...
C#                      B
All .....               be...

Verse 2
E
I ..
D
I ...
C#                     B
I never wanted to give you . . . hairdo

My ...

I'm a ..

I think ...

Riff 2
|-----------------------------------------------------------------------|
|--9-10-12-10-9------9-10-12-10-9------9-10-12-10-9----12-10-9-10-9-----|
|---------------11-9--------------11-9--------------11-------------11-9-|
|-----------------------------------------------------------------------|
|-----------------------------------------------------------------------|
|-----------------------------------------------------------------------|

Riff 2 played twice
Repeat Verse 2
Riff 2

Riff 3
|--------------9-12---------------9-12--------------9-12-11-12-14-12-11-12-|
|------9-10-12------------9-10-12-----------9-10-12------------------------|
|-9-11---------------9-11--------------9-11--------------------------------|
|--------------------------------------------------------------------------|
|--------------------------------------------------------------------------|
|--------------------------------------------------------------------------|

You gave me a bad haircut
I think I'm gonna blow your shop up

     
Добавлено: 15.09.2013
Другие материалы по этой песне:
  • Аккорды и текст

Страница создана 15.09.2013
http://primanota.ru/supernova/bad-hair-cut-chords.htm
Привет, Гость.
Предлагаем пройти революционный курс по гитаре.
Подарок от PrimaNota.Ru, забирай!