PrimaNota.ru - самый крупный в мире бесплатный архив песенных текстов, аккордов, табулатур и нот


Supernaturals - What We Did Last Summer - таба, видео

Регистрация Запомнить меня
Войти через:  Facebook Google Twitter Vk Yandex Mail.ru

Supernaturals - What We Did Last Summer - таба, видео

Печатать
Просмотров: 118
'What We Did Last Summer' (McColl & A Tilston)
By The Supernaturals.
Lead track from the 2002 album.
Transcribed by Richard.

Special solo aside, this song is fairly easy to play, and
is quite slow. Pity the single didn't get into the Top 40!

Flanged acoustic Verse ("Butterflies..."):
b:------------------------------------------------------
g:-------------------3-5-3------------------------------
d:------5-7-5----3-5-------5------3-5-3-----------------
a:--5-7-------7---------------3-5-------5------3-5-3----
e:-----------------------------------------3-5-------5--
 and
g:-----------------------------------------------------------------
d:-----7-9-7----------10-12-10-------------------------------------
a:-7-9-------9--10-12----------12--------10-12-10---------5-7-5----
e:---------------------------------10-12----------12--5-7-------7--


Fuzz Chorus ("I want to stay"):
E:---5--------8----3------
b:---6---10---8----3------
g:---7---10---9----4------
d:---7---10---10---5------
a:---5---8----10---5------
e:------------8----3------


Synth Middle ("Take the train"):
E:------------------------
b:--3-----3-----5--2------
g:--3--2--3--2--5--2------
d:--3--3--3--3--5--2------
a:--1--3--1--3--3--0------
e:-----1-----1------------


Live SOLO at 2:57: (use these notes)
E:--------------   -------------------------
b:--5s6s5-3-----   -------------------------
g:-----------5--   -----4-5-6--7--9-10-9-7--
d:--------------   -----4-5-6--7--?---------
a:--------------   -------------------------
         repeat

Outro ("A lala..."):
E:----------------------------------------------
b:--3-3-3-3-3--6-6-6-6-6------------------------
g:------------------------5-5-5-5-5-------------
d:-----------------------------------5-5-5-5-5--
a:----------------------------------------------

That's it. If you need them, full lyrics (as well as more information
about the band) can be found on the Original Supernaturals Fan-page at:

http://www.geocities.com/kesmaster.geo

Let Me Know if you disagree with any of this, or if you have figured out
any other songs by the band... (email address changes, so check to site
above for current contact details).

Hope you enjoy the song, lets get more Supernaturals on the net!
     
Добавлено: 01.07.2013
Вам также может быть интересно:
Другие материалы по этой песне:
  • Аккорды и текст

Страница создана 01.07.2013
http://primanota.ru/supernaturals/what-we-did-last-summer-chords.htm
Привет, Гость.
Предлагаем пройти революционный курс по гитаре.
Подарок от PrimaNota.Ru, забирай!