PrimaNota.ru - самый крупный в мире бесплатный архив песенных текстов, аккордов, табулатур и нот


Supernaturals - My Door Is Open - таба, видео

Регистрация Запомнить меня
Войти через:  Facebook Google Twitter Vk Yandex Mail.ru

Supernaturals - My Door Is Open - таба, видео

Печатать
Просмотров: 60
'My Door Is Open' (J. McColl)
By The Supernaturals (Koch 2002)
B-side from the CD single to What We Did Last Summer
Transcribed by Richard

This song is easy to play, and is a slow rhythm with
doubletime acoustic strumming...

INTRO/OUTRO ("Aah"):
 E:--7-----7-5---------8-----8-5---------
 b:----7-------5---5-----8-------5---5---
 g:------8-------6---6-----9-------6---6-
 d:--------------------------------------
 a:--------------------------------------
 e:--------------------------------------

VERSE ("Sweetheart"):
 E:--3-3-3-3-3-3-3-3-3-3--0-0-0-0-0--2-2-2-2-2---
 b:--0-0-0-3-0-0-0-0-3-0--2-2-2-1-2--4-4-4-3-4---
 g:--0-0-0-0-0-0-0-0-0-0--2-2-2-2-2--4-4-4-4-4---
 d:--0-0-0-0-0-0-0-0-0-0--2-2-2-2-2--4-4-4-4-4---
 a:--2-2-2-2-2-2-2-2-2-2--0-0-0-0-0--2-2-2-2-2---
 e:--3-3-3-3-3-3-3-3-3-3-------------------------

CHORUS ("I may not be the one"):
 E:--3----0----0---------------------
 b:--0----1----2---------------------
 g:--0----0----2---------------------
 d:--0----2----2---------------------
 a:--2----3----0---------------------
 e:--3-------------------------------

That's it. If you need them, lyrics (as well as more information about
the band) can be found on The Original Supernaturals Fan-page at:

http://www.geocities.com/kesmaster.geo

Let Me Know if you disagree with any of this, or if you have figured out
any other songs by the band... (email address changes, so check to site
above for current contact details).

Hope you enjoy the song, lets get more Supernaturals on the net!
     
Добавлено: 26.11.2013
Другие материалы по этой песне:
  • Аккорды и текст

Страница создана 26.11.2013
http://primanota.ru/supernaturals/my-door-is-open-chords.htm
Привет, Гость.
Предлагаем пройти революционный курс по гитаре.
Подарок от PrimaNota.Ru, забирай!