PrimaNota.ru - самый крупный в мире бесплатный архив песенных текстов, аккордов, табулатур и нот


Supernaturals - Finishing Credits - таба, видео

Регистрация Запомнить меня
Войти через:  Facebook Google Twitter Vk Yandex Mail.ru

Supernaturals - Finishing Credits - таба, видео

Печатать
Просмотров: 79
Уроки эстрадного вокала в Санкт-Петербурге
'Finishing Credits' (James McColl)
By The Supernaturals (2001)
First single from the forthcoming album "What We Did Last Summer"
Transcribed by Richard W


This is one of the band's more difficult songs to play, and
is quite fast with lots of keyboard parts.


VERSE:
E:------------------------------------------------------------------
b:----3---1---3---1---1---0---1---0---0-------0-------0-------------
g:--0---0---0---0-------------------------2-------2-------2---0---2-
d:------------------2---2---2---2-------------------0---0---0---0---
a:----------------------------------3---3---3---3-------------------
e:------------------------------------------------------------------

BASS:    G             C          D
'Cause I feel it's the end of the world...

CHORUS:
 E:--------------------------------
 b:--------------------------------
 g:--2-h4-p2-h4-p2-h4-p2-h5--0-2---
 d:--------------------------------
 a:--------------------------------
 e:--------------------------------


SECOND CHORUS twiddly bit:
 E:--3--3---3---3-----
 b:-------5---3---1---
 g:-------------------


MIDDLE BRIDGE
Just play alternate C, G


That's it. If you need them, lyrics for can be found on

The Original Supernaturals Fan-page at:

http://www.geocities.com/kesmaster.geo

Let Me Know if you disagree with any of this, or if you have figured out
any other songs by the band... (email address changes, so check to site
above for current contact details).Hope you enjoy the song, lets get
more Supernaturals on the net!


     
Добавлено: 08.11.2013
Другие материалы по этой песне:
  • Аккорды и текст

Страница создана 10.10.2013
http://primanota.ru/supernaturals/finishing-credits-chords.htm
Привет, Гость.
Предлагаем пройти революционный курс по гитаре.
Подарок от PrimaNota.Ru, забирай!