PrimaNota.ru - самый крупный в мире бесплатный архив песенных текстов, аккордов, табулатур и нот


Supernaturals - Elle - таба, видео

Регистрация Запомнить меня
Войти через:  Facebook Google Twitter Vk Yandex Mail.ru

Supernaturals - Elle - таба, видео

Печатать
Просмотров: 76
'Elle' (J. McColl)
By The Supernaturals
>From What We Did Last Summer album (2002)
Transcribed by Richard


No, this has nothing to do with women's style magazines- rather,
it's the opening track from the third record. Plenty of keyboards
and effects are needed, but at least the pace is nice and slow.


INTRO/VERSE: Cmaj7         Dm7
"She's a little out of fashion..."
E:--------------------------------------------
b:--0-0-0-0--1-1-1-1--0-0-0-0--1-1-1-1--------
g:--0-0-0-0--2-2-2-2--0-0-0-0--2-2-2-2--------
d:--------------------------------------------
a:--------------------------------------------
e:--------------------------------------------


FILL 1               FILL 2 (and OUTRO)
E:--12-10-12-13--    --12-13-12------------9--
b:---------------    -----------10-9-10-12----
g:---------------    -------------------------
d:---------------    -------------------------
a:---------------    -------------------------
e:---------------    -------------------------


CHORUS: C   Dm      Em      F
        "Elle               est la femme pour..."
E:--------------------------------------------
b:------------------------------1-3-----------
g:------5-3-----7-5-----9-7---2---------------
d:----5-------7-------9-----3-----------------
a:--3-------5-------7-------------------------
e:--------------------------------------------


MID: Fm7                 C  Dm
    "There are times when..."
E:--------------------------------------------
b:--------------------------------------------
g:--------------------------------------------
d:--------------------------------------------
a:--8--11--8----------------------------------
e:------------------1--4--1-------------------

On some performances, there is an (untabbed) solo...


That's it. If you need them, lyrics (as well as downloads and more
information about the band) can be found on the Original Supernaturals
Fan-page at:

http://www.geocities.com/kesmaster.geo

Let Me Know if you disagree with any of this, or if you have figured out
any other songs by the band... (email address changes, so check to site
above for current contact details).Hope you enjoy the song, lets get
more Supernaturals on the net!
     
Добавлено: 06.10.2013
Другие материалы по этой песне:
  • Аккорды и текст

Страница создана 03.10.2013
http://primanota.ru/supernaturals/elle-chords.htm
Привет, Гость.
Предлагаем пройти революционный курс по гитаре.
Подарок от PrimaNota.Ru, забирай!