PrimaNota.ru - самый крупный в мире бесплатный архив песенных текстов, аккордов, табулатур и нот


Supernaturals - Easylife - аккорды и текст, видео

Регистрация Запомнить меня
Войти через:  Facebook Google Twitter Vk Yandex Mail.ru

Supernaturals - Easylife - аккорды и текст, видео

Печатать
Просмотров: 83
Easylife
Supernaturals
"Easy Life" (D McManus)
By The Supernaturals
>From album What We Did Last Summer (2002)
 Also remix as B-side of Finishing Credits single
Transcribed by Richard W


This song isn't that hard to play. It is
quite complex with lost of extra keyboard
parts, but it's also pretty slow.


INTRO:
 E:--0---------2--
 b:--1---1-----1--
 g:--0------0--2--
 d:--2-2-------0--
 a:--0------------
 e:---------------


CHORUS (I'm living the...):
 E:--1----0-------
 b:--3----1-------
 g:--2----0-------
 d:--0----2-------
 a:-------3-------
 e:---------------


VERSE (Got no worries...):
 g:------------------
 d:-------3----------
 a:--------------8---
 e:--3-s5---8-s5-----


MIDDLE BRIDGE (I've got my pace...):
 E:--3--4--6--6--5--4--
 b:--3--4--8--6--6--6--
 g:--3--5--8--7--7--6--
 d:--5--6--8--8--7--6--
 a:--5--6--6--8--5--4--
 e:--3--4-----6--------


OUTRO (Living the...):
 E:--10-h12-p10-h12--8-h10-p8--h10--
 b:---------------------------------
 g:---------------------------------


That's it. If you need them, full lyrics (as well as more information
about the band, and downloads, etc) can be found on the Original
Supernaturals Fan-page at:

http://www.geocities.com/kesmaster.geo/

Let Me Know if you disagree with any of this, or if you have figured out
any other songs by the band... (email address changes, so check to site
above for current contact details).

Hope you enjoy the song, lets get more Supernaturals on the net!
     
Добавлено: 08.07.2013
Другие материалы по этой песне:
  • Аккорды и текст

Страница создана 08.07.2013
http://primanota.ru/supernaturals/easylife-chords.htm
Привет, Гость.
Предлагаем пройти революционный курс по гитаре.
Подарок от PrimaNota.Ru, забирай!