PrimaNota.ru - самый крупный в мире бесплатный архив песенных текстов, аккордов, табулатур и нот


Superman Is Dead - Black Market Love - таба, видео

Регистрация Запомнить меня
Войти через:  Facebook Google Twitter Vk Yandex Mail.ru

Superman Is Dead - Black Market Love - таба, видео

Печатать
Просмотров: 83
Judul 		: Black Market Love
Artist 		: Superman Is Dead
Album 		: Black Marekt Love
Tabbed by 	: yoos
Email		: yoos_yoes@yahoo.com


Solo

e|------------------------------------------------------|
B|------------------------------------------------------|
G|-----4-------------4------------4------------4--------|
D|--5-----7-5-4--------7-5-4--------7-5-4--------7-5-4--|
A|--------------5--5---------7--7---------5--5----------|
E|------------------------------------------------------|

e|-------------------------------------------------------|
B|-------------------------------------------------------|
G|----------4-4------------------------------------------|
D|------5-5-----5-5-----5-5---5-4-2-4~---4-5-7-/9-7-5-7--|
A|--3-3-------------3-3-------------2--------------------|
E|-------------------------------------------------------|

e|------------------------------------------------------|
B|------------------------------------------------------|
G|-----4-------------4------------4------------4--------|
D|--5-----7-5-4--------7-5-4--------7-5-4--------7-5-4--|
A|--------------5--5---------7--7---------5--5----------|
E|------------------------------------------------------|

e|-------------------------------------2-3-5-/7-5-3-5-3--|
B|----------3-3-----3-3-----3-2-0-2~---------------------|
G|-------------------------------------------------------|
D|------5-5-----5-5-----5-5------------------------------|
A|--3-3--------------------------------------------------|
E|-------------------------------------------------------|


Intro
D5 E5

G5		B5	E5	   C5	E5		C5	
Tattoos on my hand, music's on my mind, this will never end, 
D5		   G5
this black market love!
G5		B5	E5	    C5	   E5		   C5
I wear second hand, hookers are my friend, this will never end,
D5		   G5 
this black market love!

G5			B5			E5		B5
Walking down walking down the streets of a thousand broken hearts
	C5		D5			G5	D#5 D5
In the nation of disaster, never close your eyes…
G5			B5		E5		B5
What they about the right and wrong, a question in my mind
	C5		D5
For one thing that I'll be there….

	G5	    B5		   E5		B5
So where will you, where will you, where will you go
	C5		     D5			   G5	D#5 D5
When there's no one by your side, turn off the radio…
	G5	    B5		   E5		B5			
So where are you, where are you now?
	C5	    D5
The youth of mis-rejection….

G5		B5	E5	   C5	E5		C5	
Tattoos on my hand, music's on my mind, this will never end, 
D5		   G5
this black market love!
G5		B5	E5	    C5	   E5		   C5
I wear second hand, hookers are my friend, this will never end, 
D5		   G5
this black market love!
E5							     C5   	B5	G5
[this is love, fight for love, this is love, fight for love…this black market love!]

G5		B5		     E5		    B5
Brother sister don't you cry, don't ever lose your faith
	C5		D5		      G5	D#5 D5
We're born like this forever, we will never stop…
G5			B5	     E5		    	B5
What we love and we fighting for, and why we're standing here
	C5		D5
That's one thing to remember….

	G5	    B5		   E5		B5
So where will you, where will you, where will you go
	C5		     D5			   G5	D#5 D5
When there's no one by your side, turn off the radio…
	G5	    B5		   E5		B5			
So where are you, where are you now?
	C5	    D5
The youth of mis-rejection….

G5		B5	E5	   C5	E5		C5	
Tattoos on my hand, music's on my mind, this will never end, 
D5		   G5
this black market love!
G5		B5	E5	    C5	   E5		   C5
I wear second hand, hookers are my friend, this will never end, 
D5		   G5
this black market love!
E5							     C5   	B5	G5
[this is love, fight for love, this is love, fight for love…this black market love!]


NB: Sorry kalo ga teratur ato ada yang salah
Добавлено: 13.05.2012
Другие материалы по этой песне:

Страница создана 11.03.2012
http://primanota.ru/superman-is-dead/black-market-love-chords.htm
Привет, Гость.
Предлагаем пройти революционный курс по гитаре.
Подарок от PrimaNota.Ru, забирай!