PrimaNota.ru - самый крупный в мире бесплатный архив песенных текстов, аккордов, табулатур и нот


Superlitio - Viernes Otra Vez - аккорды и текст, видео

Регистрация Запомнить меня
Войти через:  Facebook Google Twitter Vk Yandex Mail.ru

Superlitio - Viernes Otra Vez - аккорды и текст, видео

Печатать
Просмотров: 57
Viernes Otra Vez
Superlitio
http://superlitio.com/blog/

Fm            C7
Vida, dame tu vida,
                                         Fm
siento que todo lo malo siempre me pasa a mi
A#m         D#             Cm              C#
voy a permitir que todo lo bueno vuelva en mi
G#         A#m    Cm C#     C7
yo ya no quiero pensar en ayer

Fm             C7
Solo estoy tan solo
                             Fm
aunque la musa se ríe de la soledad
A#m         D#                  Cm               C#
voy a despertar voy a abrir mis ojos y ver el final
G#         A#m    Cm C#     C7
yo ya no quiero pensar en ayer

    C#          A#m
Es viernes otra vez
          Fm                 G#                  C#         D#
y me desintegro toda la esperanza se fue con un poco de tu vos
           Fm               G#
y no tengo nada yo no tengo nada
              C#         A#m         
por que es el tiempo corazón
        Fm                   G#
que desaparece solo me haces daño inmenso
C#       D#           Fm           C7
solo por ti pero tu puñal mato mis ganas de ver al sol.


Solo:
 
e-----------------------------------------------|
B-----------------------------------------------|
G-----------------------------------------------|
D----------------------------------3--5---------|
A--3--3--4----3-1-3-------------4---------------|
E-----------------------------------------------|
        
e-----------------------------------------------|
B---------------------------------9-----9-----9-|
G-----------------------------------------------|
D------5h6p5------3/5-----5/--------------------|
A-----------------------------------------------|
E-----------------------------------------------|

e-----------------------------------------------|
B---10--9--10/12--12--12--15-13--12h13--10------|
G-----------------------------------------------|
D-----------------------------------------------|
A-----------------------------------------------|
E-----------------------------------------------|

e-----------------------------------------------|
B----11-------13-----13-/-----------------------|
G----12-------13-----13/------------------------|
D-----------------------------------------------|
A-----------------------------------------------|
E-----------------------------------------------|



Fm             C7
Vida te doy la mía
                                Fm
nunca pensé que quererte me mataría
A#m         D#             Cm              C#
voy a permitir que todo lo bueno vuelva en mi
G#         A#m    Cm C#     C7
yo ya no quiero pensar en ayer

    C#          A#m
Es viernes otra vez
          Fm                 G#                  C#         D#
y me desintegro toda la esperanza se fue con un poco de tu vos
           Fm               G#
y no tengo nada yo no tengo nada
              C#         A#m         
por que es el tiempo corazón
        Fm                   G#
que desaparece solo me haces daño inmenso
C#       D#           Fm           C7
solo por ti pero tu puñal mato mis ganas de ver al sol.
Добавлено: 10.11.2013
Другие материалы по этой песне:
  • Аккорды и текст

Страница создана 10.11.2013
http://primanota.ru/superlitio/viernes-otra-vez-chords.htm
Привет, Гость.
Предлагаем пройти революционный курс по гитаре.
Подарок от PrimaNota.Ru, забирай!