PrimaNota.ru - самый крупный в мире бесплатный архив песенных текстов, аккордов, табулатур и нот


Superheaven - Youngest Daughter - бас-таба, видео

Регистрация Запомнить меня
Войти через:  Facebook Google Twitter Vk Yandex Mail.ru

Superheaven - Youngest Daughter - бас-таба, видео

Печатать
Просмотров: 82
Авторы: Superheaven

-------------------------------------------------------------------------------
                             YOUNGEST DAUGHTER - Superheaven (Formerly Daylight)
-------------------------------------------------------------------------------
Tabbed by: cesare_moon
E-mail: 

Artist: Daylight (Now known as Superheaven)
Album: Jar
Year: 2013

Tuning:

Intro - 00.15 - 00.45

G|--------------------------------------------------------------------------------------|
D|--------------------------------------------------------------------------------------|
A|---------6~--6--6-6-6---------6~--6--6-6-6---------6~--6--6-6-6-----------------------|
E|-3~-3-3---------------3~-3-3---------------3~-3-3---------------4~-4-4--2~--2--2-2-2--| x2


Verse - 00.45 - 01.18

G|---------------------------------------------------------------------------|
D|---------------------------------------------------------------------------|
A|-----------------------------3~-3-3--6~--6--6-6-6--3~-3-3--6~--6--6-6-6----|
E|-4~------------------------------------------------------------------------| x2

G|---------------------------------------------------------------------------|
D|---------------------------------------------------------------------------|
A|---------------------------------------------------------------------------|
E|-4-4-4-4-4-4-2-2---2~------------------------------------------------------|

Chorus - 01.18 - 01.48

G|---------------------------------------------------------------------------|
D|---------------------------------------------------------------------------|
A|-6-----6-6-----------------------------------------------------------------|
E|------------3---3-3-3-3--2-----2-2-----4---4-4-4-4-------------------------| x3

G|---------------------------------------------------------------------------|
D|---------------------------------------------------------------------------|
A|-6-----6-6-----------------------------------------------------------------|
E|------------3---3-3-3-3---------4-4-4-4-4-4-4-4----------------------------|

Intro - 01.48 - 02.03 

G|--------------------------------------------------------------------------------------|
D|--------------------------------------------------------------------------------------|
A|---------6~--6--6-6-6---------6~--6--6-6-6---------6~--6--6-6-6-----------------------|
E|-3~-3-3---------------3~-3-3---------------3~-3-3---------------4~-4-4--2~--2--2-2-2--| x2

Verse - 02.03 - 03.02

G|---------------------------------------------------------------------------|
D|---------------------------------------------------------------------------|
A|-3-3-3-3-3-3-3-3-6-6-6-6-6-6-6-6------------------------------------|
E|---------------------------------4-4-4-4-4-4-4-4-2-2-2-2-2-2-2-2-----------| x4

G|---------------------------------------------------------------------------|
D|---------------------------------------------------------------------------|
A|-3-3-3-3-3---3-3~---6-6-6-6-6----6-6~--------------------------------------|
E|---------------------------------------4-4-4-4-4---44~---2-2-2-2-2---2-2~--| x4

Chorus - 03.17 - 3.47

G|---------------------------------------------------------------------------|
D|---------------------------------------------------------------------------|
A|-6-----6-6-----------------------------------------------------------------|
E|------------3---3-3-3-3--2-----2-2-----4---4-4-4-4-------------------------| x3

G|---------------------------------------------------------------------------|
D|---------------------------------------------------------------------------|
A|-6-----6-6-----------------------------------------------------------------|
E|------------3---3-3-3-3---------4-4-4-4-4-4-4-4----------------------------|

Intro - 3.47 - End

G|--------------------------------------------------------------------------------------|
D|--------------------------------------------------------------------------------------|
A|---------6~--6--6-6-6---------6~--6--6-6-6---------6~--6--6-6-6-----------------------|
E|-3~-3-3---------------3~-3-3---------------3~-3-3---------------4~-4-4--2~--2--2-2-2--|

Thank you! :)

| /  slide up
| \  slide down
| h  hammer-on
| p  pull-off
| ~  vibrato
| +  harmonic
| x  Mute note
===============================================================================
Добавлено: 11.06.2016
Вам также может быть интересно:
Другие материалы по этой песне:
  • Аккорды и текст

Страница создана 11.06.2016
http://primanota.ru/superheaven/youngest-daughter-chords.htm
Привет, Гость.
Предлагаем пройти революционный курс по гитаре.
Подарок от PrimaNota.Ru, забирай!