PrimaNota.ru - самый крупный в мире бесплатный архив песенных текстов, аккордов, табулатур и нот


Superheaven - Leach - таба, видео

Регистрация Запомнить меня
Войти через:  Facebook Google Twitter Vk Yandex Mail.ru

Superheaven - Leach - таба, видео

Печатать
Просмотров: 67
Уроки эстрадного вокала в Санкт-Петербурге
-------------------------------------------------------------------------------
                             SONG NAME - Band Name
-------------------------------------------------------------------------------
Tabbed by:
E-mail:

Tuning:Half step down

e|---------------------------------------------------------------------------|
B|---------------------------------------------------------------------------|
G|---------------------------------------------------------------------------|
D|---------------------------------------------------------------------------|
A|-2----10-9-10-9-2-----10-12-10-9--2-----10-9-10-9-2---12b------------------|
E|---------------------------------------------------------------------------|

e|--------------------0-0----------------------------------------------------|x4
B|--------------------0-0----------------------------------------------------|
G|-4-4---4-4--4-4-4-4-----4--------------------------------------------------|
D|-4-4---4-4--4-4-4-4-----4--------------------------------------------------|
A|-2-2-/-3-3--3-0------------------------------------------------------------|
E|----------------3-3-----3--------------------------------------------------|

e|---------------------------------------------------------------------------|x4
B|---------------------------------------------------------------------------|
G|----------------------4-4-0------------------------------------------------|
D|4-4-5-5--5-5-5-5-5-5-------------------------------------------------------|
A|2-4-3-3--3-5-5-5-5-5-------------------------------------------------------|
E|2-2-3-3--3-3-3-3-3-3-------------------------------------------------------|
repeat first 3 parts

e|---------------------------------------------------------------------------|x2
B|---------------------------------------------------------------------------|
G|---------------------------------------------------------------------------|
D|------------------------------------------------5-5-5-5-5-5-5-5------------|
A|2-2-2-3-4-4-4-3-5-5-5-3-4-4-4-3-2-2-2-3-4-4-4-3-3-3-3-3-3-3-3-3------------|
E|0-0-0-1-2-2-2-1-3-3-3-1-2-2-2-1-0-0-0-1-2-2-2-1-3-3-3-3-3-3-3-3----------- |
play second part again then 3rd part then final part




************************************

| /   slide up
| \   slide down
| h   hammer-on
| p   pull-off
| ~   vibrato
| +   harmonic
| x   Mute note
| b   Bend
| pb  Pre-bend
| br  Bend release
| pbr Pre-bend release
| brb Bend release bend

************************************
Добавлено: 11.06.2016
Другие материалы по этой песне:
  • Аккорды и текст

Страница создана 11.06.2016
http://primanota.ru/superheaven/leach-chords.htm
Привет, Гость.
Предлагаем пройти революционный курс по гитаре.
Подарок от PrimaNota.Ru, забирай!