PrimaNota.ru - самый крупный в мире бесплатный архив песенных текстов, аккордов, табулатур и нот


Supergrass - What A Shame - текст песни, таба, видео

Регистрация Запомнить меня
Войти через:  Facebook Google Twitter Vk Yandex Mail.ru

Supergrass - What A Shame - текст песни, таба, видео

Печатать
Просмотров: 117
Уроки эстрадного вокала в Санкт-Петербурге
WHAT A SHAME
BY SUPERGRASS
FROM PUMPING ON YOUR STEREO B-SIDE
1999
-----------------------------------

Tabbed by AAuuddee@aol.com


INTRO: acoustic guitar
  D7
------
--2---
--3---
--0---
------
------


VERSE:
  D7  E   C   A
--------------------------------------------
--2---0---1---2-----------------------------
--3---1---0---2----------------------------- x2
--0---2---2---2-----------------------------
------2---3---0---0--4p0--0--4p0---4p0--0---
--------------------------------------------


CHORUS:
  E        D            A5
-----------2-------------------------------------------
-----------3---------------5s---14~--14~--14~(repeat)--
-----------2------------6--5s---14~--14~--14~---------- x2
-------6---0------------7--5s---14~--14~--14~----------
--5s7--7----------------7------------------------------
--5s7--7------3p0--3s5--5------------------------------


VERSE


CHORUS


VERSE


CHORUS


SOLO: play VERSE chords in the same time

let ring
-------------------------------------------------
-------------------------------------------------
--5~(repeat)----5--7--5--7h5---5---5-------------
-------------7~--------------7---7---7~----------
-------------------------------------------------
-------------------------------------------------

-------------------------------------------------
---------------------------------------2-2--2-2--
--5~(repeat)----5--7--5--7h5---5---5---5b6--5b6--
-------------7~--------------7---7---7-----------
-------------------------------------------------
-------------------------------------------------


CHORUS:

  E        D            A5
-----------2-------------------------------------------
-----------3---------------5s---14~--14~--14~(repeat)--
-----------2------------6--5s---14~--14~--14~---------- x2
-------6---0------------7--5s---14~--14~--14~----------
--5s7--7----------------7------------------------------
--5s7--7------3p0--3s5--5------------------------------

  E        D            A5
-----------2-------------------------------------------
-----------3---------------5s---14~--14~--14~(repeat)--
-----------2------------6--5s---14~--14~--14~---------- 
-------6---0------------7--5s---14~--14~--14~----------
--5s7--7----------------7------------------------------
--5s7--7------3p0--3s5--5------------------------------

  E        D            A5
-----------2-------------------------------------------
-----------3-------------------------------------------
-----------2------------6~----------------------------- 
-------6---0------------7~-----------------------------
--5s7--7----------------7~-----------------------------
--5s7--7------3p0--3s5--5~-----------------------------


ENJOY!!

     
Добавлено: 07.10.2013
Другие материалы по этой песне:
  • Аккорды и текст

Страница создана 07.10.2013
http://primanota.ru/supergrass/what-a-shame-chords.htm
Привет, Гость.
Предлагаем пройти революционный курс по гитаре.
Подарок от PrimaNota.Ru, забирай!