PrimaNota.ru - самый крупный в мире бесплатный архив песенных текстов, аккордов, табулатур и нот


Supergrass - Sick - таба, видео

Регистрация Запомнить меня
Войти через:  Facebook Google Twitter Vk Yandex Mail.ru

Supergrass - Sick - таба, видео

Печатать
Просмотров: 72
SICK
BY SUPERGRASS
FROM PUMPING ON YOUR STEREO B-SIDE
1999
-----------------------------------

Tabbed by AAuuddee@aol.com


INTRO:

Ab7/F#  Ab7/F  Ab7/F#  Ab7/F  F#/E  C#5  B5  F#5  Ab5
--4-----4------4-------4------2----------------------
--7-----6------7-------6------5----------------------
--5-----5------5-------5------3-----10---8---3s---5--
--4-----4------4-------4------2-----11---9---4s---6--
--6-----6------6-------6------4-----11---9---4s---6--
--4-----4------4-------4------2------9---7---2s---4--


VERSE1:

Ab7/F#  Ab7/F  Ab7/F#  Ab7/F  F#/E  C#5  B5  F#5  Ab5
--4-----4------4-------4------2----------------------
--7-----6------7-------6------5----------------------
--5-----5------5-------5------3-----10---8---3s---5--
--4-----4------4-------4------2-----11---9---4s---6--
--6-----6------6-------6------4-----11---9---4s---6--
--4-----4------4-------4------2------9---7---2s---4--

Ab7/F#  Ab7/F  Ab7/F#  Ab7/F  F#/E  C#5  B5  F#5  
--4-----4------4-------4------2-------------------
--7-----6------7-------6------5-------------------
--5-----5------5-------5------3-----10---8---3----
--4-----4------4-------4------2-----11---9---4----
--6-----6------6-------6------4-----11---9---4----
--4-----4------4-------4------2------9---7---2----


CHORUS:

 F#5  E5  B5  A5
-------------------
-------------------
--3---1---8----6---
--4---2---9-*--7---
--4---2---9----7---
--2---0---7----5---

*2nd guitar plays:

------------
------------
--4s6~--s---
------------
------------
------------


VERSE2: same as verse1


CHORUS


SOLO1: let ring

guitar1:
---------------------------------------------
---------6---6s7h6--7---------6---6s7h6--7---
--5s8--5---5----------*5s8--5---5------------
---------------------------------------------
---------------------------------------------
---------------------------------------------

--------------------------------------------
----5--6---6s7s6s7--------------------------
--6--6---6---------8~--6h8p6h8p6(repeated)--
--------------------------------------------
--------------------------------------------
--------------------------------------------

*guitar2 starts:

---------------------------------8s9s8s9-------------
----7--9---9s11h9--11---7---9------------12--11--9s--
--8--8--8-------------8---8---8----------------------
-----------------------------------------------------
-----------------------------------------------------
-----------------------------------------------------


CHORUS x2

2nd time, play it like this:

 F#5  E5  B5  A5
--------------------
--------------------
--3---1---8----6----
--4---2---9-*--7-*--
--4---2---9----7----
--2---0---7----5----

*2nd guitar plays:

------------
------------
--4s6~--s---
------------
------------
------------


SOLO2: x2 until the end

let ring

---------------------------------------------
---------6---6s7h6--7---------6---6s7h6--7---
--5s8--5---5-----------5s8--5---5------------
---------------------------------------------
---------------------------------------------
---------------------------------------------

------------------------
----5--6---6s7--4-------
--6--6---6--------6--4--
------------------------
------------------------
------------------------
     
Добавлено: 09.10.2013
Вам также может быть интересно:
Другие материалы по этой песне:
  • Аккорды и текст

Страница создана 09.10.2013
http://primanota.ru/supergrass/sick-chords.htm
Привет, Гость.
Предлагаем пройти революционный курс по гитаре.
Подарок от PrimaNota.Ru, забирай!