PrimaNota.ru - самый крупный в мире бесплатный архив песенных текстов, аккордов, табулатур и нот


Supergrass - Rebel In You - текст песни, таба, видео

Регистрация Запомнить меня
Войти через:  Facebook Google Twitter Vk Yandex Mail.ru

Supergrass - Rebel In You - текст песни, таба, видео

Печатать
Просмотров: 102
*Please rate or comment, thanks you*

Supergrass - Rebel In You

I'm 98% sure it's right, if sometimes you don't find the rhythm listen to the song ;)

Intro X2 :

e|---------------------------------------|
b|--------------/8~----------------------|
G|-/8-9~--4-5-7------/8-9~--4-5-4---0----|
D|---------------------------------------|
A|---------------------------------------|
E|---------------------------------------|

Verse X2 :
      Am     G
e|--7777-5---3--3----------------------3---|
b|--5555-5---3--3----------------------3---|
G|--5555-5---4--4----------------------4---|
D|--7777(7)--5--5----------------------5---|
A|-----------------------------------------|
E|-----------------------------------------|
      Am     G
e|--7777-5---3--3----------------------3---3-|
b|--5555-5---3--3----------------------3---3-|
G|--5555-5---4--4----------------------4---4-|
D|--7777(7)--5--5----------------------5---5-|
A|-------------------------------------------|
E|-------------------------------------------|
    F
e|--3-1-3-1---------1---1---|
b|--1-1-1-1---------1---1---|
G|--2-2-2-2---------2---2---|
D|--3-3-3-3---------3---3---|
A|--------------------------|
E|--------------------------|

    First time
 |--------------|
 |  Em7         |  C
e|--7-7-7--7---7---8-8--8--8---8-----|
B|--8-7-8--10--8---8-8--8--10--8-----|
G|--7-7-7--7---7---9-11-9--9---9-----|
D|--9-9-9--9---9--10-10-10-10--10----|
A|--7-7-7--7---7---------------------|
E|-----------------------------------|
 |                                   |
 |-----------------------------------|
             Second time

Chorus :
    G       F       Em     Eb     D      C
e|--3-------1-------7----------------------------------------------|
B|--3-------1-------8----------------------------------------------|
G|--4-------2-------9-(x8)-8------7------5-5-5-5-5-5-5-5-5-5-5-5-5-|
D|--5-(x16)-3-(x16)-9------8-(x4)-7-(x4)-5-5-5-5-5-5-5-5-5-5-5-5-5-|
A|--5-------3-------7------6------5------3-3-3-3-3-3-3-3-3-3-3-3-3-|
E|--3-------1------------------------------------------------------|

Verse X2

Chorus

Solo :

e|-/12~-12~-10-------------------------------------------------------------|
B|------------12-10-12~--12-10-8/10-12~-----12/13-12-10-8-8h10~-10--8--8~--|
G|-------------------------------------------------------------------9-----|
D|-------------------------------------------------------------------------|
A|-------------------------------------------------------------------------|
E|-------------------------------------------------------------------------|

e|----------------------------------------------------------------|
B|-/13-13~-13/12~----12/10~----10/8~----8------8~--10br--8~-10~---|
G|---------------------------------------9-7-9---------9----------|
D|----------------------------------------------------------------|
A|----------------------------------------------------------------|
E|----------------------------------------------------------------|

e|--12~12~12~12~10-------------------------------------------------------15---15-------|
B|----------------12-10-10h12~--12-10-8--8-10-11~11~13~13~15~15~15~15~15b--15b--15b----|
G|-------------------------------------------------------------------------------------|
D|-------------------------------------------------------------------------------------|
A|-------------------------------------------------------------------------------------|
E|-------------------------------------------------------------------------------------|

Break (keyboard) ( G   F  Em7  C )

Final Chorus :
          x2
   |---------------|
   | G       F     |Em    Eb      D      C
e|--3-------1-------7----------------------------------------------|
B|--3-------1-------8----------------------------------------------|
G|--4-------2-------9-(x8)-8------7------5-5-5-5-5-5-5-5-5-5-5-5-5-|
D|--5-(x16)-3-(x16)-9------8-(x4)-7-(x4)-5-5-5-5-5-5-5-5-5-5-5-5-5-|
A|--5-------3-------7------6------5------3-3-3-3-3-3-3-3-3-3-3-3-3-|
E|--3-------1------------------------------------------------------|

Outro :

Play this until the end ;)
    G             C
e|--7-7--7-7---7----8-8--8--8---8-------|
B|--8-7--8-10--8----8-8--8--10--8-------|
G|--7-7--7-7---7----9-11-9--9---9-------|
D|--9-9--9-9---9---10-10-10-10--10------|
A|----10--------------------------------|
E|--------------------------------------|
       |
       v
It's weird but I'm 100% sure it's right 

Thanks you, bye :)
Добавлено: 22.02.2012
Другие материалы по этой песне:
  • Аккорды и текст

Страница создана 22.02.2012
http://primanota.ru/supergrass/rebel-in-you-chords.htm
Привет, Гость.
Предлагаем пройти революционный курс по гитаре.
Подарок от PrimaNota.Ru, забирай!