PrimaNota.ru - самый крупный в мире бесплатный архив песенных текстов, аккордов, табулатур и нот


Superdrag - Sucked Out The Feeling - бас-таба, видео

Регистрация Запомнить меня
Войти через:  Facebook Google Twitter Vk Yandex Mail.ru

Superdrag - Sucked Out The Feeling - бас-таба, видео

Печатать
Просмотров: 66
'Who Sucked Out the Feeling'
Superdrag

by Jesse McCabe

I expanded on the last tab.  This is completely my own

interpretation after listening and playing along with 
this song about 100 times tonight.

Verse:

|--------|--------|--------|--------|
|--------|--------|--------|--------|
|7-7-7-9-|--------|--------|--------|
|--------|7-7-7-8-|9-9-9-7-|4-4-4-4-|


|--------|--------|--------|--------|
|--------|--------|--------|--------|
|--------|--------|--------|--------|
|5-5-5-7-|0-0-0-9-|7-7-7-7-|7-5-7-8-|

Prechorus:

|--------|--------|--------|--------|
|--------|--------|--------|--------|
|--------|--------|--------|--------|
|9-9-9-9\|4-4-4-4-|9-9-9-9\|4-4-4-4-|

|--------|--------|--------|--------|
|--------|--------|--------|--------|
|--------|--------|--------|--------|
|2222222/|7777777\|2222222/|77777777|

Chorus:
|--------|--------|
|7--76--6|-------9|  (Chorus 1: 1x )
|--------|9--9767-|  (Chorus 2/3: 3x )
|--------|--------|

|--------|--------|
|7--76--6|--------|
|--------|9--97--6| 
|--------|-----79-|

Outro:


|--------|--------|
|77776666|--------|
|--------|9999767-|  
|--------|-------5|

|--------|--------|
|--------|--------|
|--------|----767-|  (Repeat until fade out)
|55554444|2222---5|


     
Добавлено: 04.11.2013
Другие материалы по этой песне:
  • Аккорды и текст

Страница создана 04.11.2013
http://primanota.ru/superdrag/sucked-out-the-feeling-chords.htm
Привет, Гость.
Предлагаем пройти революционный курс по гитаре.
Подарок от PrimaNota.Ru, забирай!