PrimaNota.ru - самый крупный в мире бесплатный архив песенных текстов, аккордов, табулатур и нот


Superdrag - Pine Away - аккорды и текст, видео

Регистрация Запомнить меня
Войти через:  Facebook Google Twitter Vk Yandex Mail.ru

Superdrag - Pine Away - аккорды и текст, видео

Печатать
Просмотров: 121
Уроки эстрадного вокала в Санкт-Петербурге
Pine Away
Superdrag
Superdrag - Pine Away
'Head Trip In Every Key'
cbp@bulldog.georgetown.edu - Chad Pimentel
This transcription is solely my own work, but if you want to send John 
Davis some money in a box (or pick up a Superdrag album), cool.  Great 
bridge with the three consecutive minor chords.
--

Intro

   G            G7            Cadd9              Riff
e--3-3--3-3-3-3-3--3--3-3-3-3-3--3--3-3-3-3-3-------0-3-2---0--  
B--3-3--3-3-3-3-3--3--3-3-3-3-3--3--3-3-3-3-3----3-------3---3-
G--0-0--0-0-0-0-0--0--0-0-0-0-0--0--0-0-0-0-0------------------
D--0-0--0-0-0-0-0--0--0-0-0-0-2--2--2-2-2-2-2------------------
A--2-2--2-2-2-2-0--0--0-0-0-0-3--3--3-3-3-3-3------------------
E--3-3--3-3-3-3-3--3--3-3-3-3-x--x--x-x-x-x-x------------------

Verse - same, except hold the Cadd9 for one extra strumming pattern

Bridge
Bm       Em             Am
  Will I ever feel this way again...
D        G     F#/G      Em D Cadd9  Riff
  I will never feel this way again... 

Outro
   G             F#/G          Em            D             Cadd9
e--3--3--3-3-3-3-3--3--3-3-3-3-0--0--0-0-0-0-2--2--2-2-2-2-3----
B--3--3--3-3-3-3-3--3--3-3-3-3-0--0--0-0-0-0-3--3--3-3-3-3-3----
G--0--0--0-0-0-0-0--0--0-0-0-0-0--0--0-0-0-0-2--2--2-2-2-2-0----
D--0--0--0-0-0-0-0--0--0-0-0-0-2--2--2-2-2-2-0--0--0-0-0-0-2----
A--2--2--2-2-2-2-0--0--0-0-0-0-2--2--2-2-2-2-x--x--x-x-x-x-3----
E--3--3--3-3-3-3-2--2--2-2-2-2-0--0--0-0-0-0-x--x--x-x-x-x-x----

     
Добавлено: 04.11.2013
Другие материалы по этой песне:
  • Аккорды и текст

Страница создана 20.04.2012
http://primanota.ru/superdrag/pine-away-chords.htm
Привет, Гость.
Предлагаем пройти революционный курс по гитаре.
Подарок от PrimaNota.Ru, забирай!