PrimaNota.ru - самый крупный в мире бесплатный архив песенных текстов, аккордов, табулатур и нот


Supercar - Lucky - таба, видео

Регистрация Запомнить меня
Войти через:  Facebook Google Twitter Vk Yandex Mail.ru

Supercar - Lucky - таба, видео

Печатать
Просмотров: 101
-------------------------------------------------------------------
                             LUCKY - Supercar
-------------------------------------------------------------------------------
Tabbed by:
Email:nyyankees8989@yahoo.com

Tuning: Standard Tuning

This is the tab for the lead guitar only. I'm pretty sure this is 100% correct.  I
noticed there were like no Supercar tabs which is a shame.  Fantastic band.

*Don't worry about the sliding 'directions', I just did whatever.  Slide to the obvious direction.

(0:03-0:14)
e|---------------------------------------------------------------------------|
B|-8--8h9-8-------8--8h9-8---------------------------------------------------|
G|-----------8--------------8-10-8-8-10-8------------------------------------|
D|---------------------------------------------------------------------------|
A|---------------------------------------------------------------------------|
E|---------------------------------------------------------------------------|
(0:15-0:29)
e|---------------------------------------------------------------------------|
B|-889888988898------889888988898------889888988898--------------------------|
G|-888888888888-8-8--888888888888-8-8--888888888888-8-8---10--7--------------|
D|---------------------------------------------------------------8-----------|
A|---------------------------------------------------------------------------|
E|---------------------------------------------------------------------------|
(0:30-0:59)
e|---------------------------------------------------------------------------|
B|-8--8--9--8---8--8----8---9--8---8-----(Repeat over and over)--------------|
G|--8---8-----8-------8---8------8-------------------------------------------|
D|---------------------------------------------------------------------------|
A|---------------------------------------------------------------------------|
E|---------------------------------------------------------------------------|
(1:00-1:15)                                         SECTION-A
e|---------------------------------------------------------------------------|
B|-----------------------------8-----------8------------8--------------------|
G|-7-8-8\10--8-7-7-8-8/10--8-7------7-----------7-------------7-------(X2)---|
D|---------------------------------------------------------------------------|
A|---------------------------------------------------------------------------|
E|---------------------------------------------------------------------------|
(1:15-1:28)                                          SECTION- B
e|---------------------------------------------------------------------------|
B|-8-----------8-------------------------------------------------------------|
G|---10-8-7-------10-8-7-----0\8--8--7--8---0\8--8--7--8----(X2)-------------|
D|---------------------------------------------------------------------------|
A|---------------------------------------------------------------------------|
E|---------------------------------------------------------------------------|
(1:28-1:30)(After the end of 2nd cycle above)        SECTION- C
e|---------------------------------------------------------------------------|
B|---------------------------------------------------------------------------|
G|---------8-----------------------------------------------------------------|
D|-----8---8-----------------------------------------------------------------|
A|--6------6-----------------------------------------------------------------|
E|---------------------------------------------------------------------------|
CHORUS- (1:31-1:58)*Listen to song carefully.I put the exact amount of strums and they 
are 11s' NOT 1s'*

e|-11------13-13-13-11-11-13-13-11--15-----13-13-11--13--11------------------|
B|-11-(X8)-11-11-11-11-11-11-11-11--11-(X9)11-11-11--11--11------------------|
G|---------------------------------------------------------------------------|
D|---------------------------------------------------------------------------|
A|---------------------------------------------------------------------------|
E|---------------------------------------------------------------------------|

e|---------------------------------------------------------------------------|
B|---11-(X16)---9-(X16)------------------------------------------------------|
G|---10---------8--------------------*REPEAT CHORUS TWICE--------------------|
D|---------------------------------------------------------------------------|
A|---------------------------------------------------------------------------|
E|---------------------------------------------------------------------------|
(1:58-2:01)
e|--8--6---------------------------------------------------------------------|
B|-------8--6----------------------------------------------------------------|
G|-------------8-------------------------------------------------------------|
D|---------------------------------------------------------------------------|
A|---------------------------------------------------------------------------|
E|---------------------------------------------------------------------------|
SOLO Part 1 (2:01-2:15)
e|---------------------------------------------------------------------------|
B|-11-11h13-11h13-11-13-13\16------11-11h13-11h13-11-13-13\16----------------|
G|---------------------------------------------------------------------------|
D|------------------------------13-------------------------------------------|
A|---------------------------------------------------------------------------|
E|---------------------------------------------------------------------------|

e|---------------------------------------------------------------------------|
B|----11-11h13-11h13-11-13-13\16-----11-11h13-11h13-11-13-13\16--------------|
G|---------------------------------------------------------------------------|
D|-13------------------------------13----------------------------------------|
A|---------------------------------------------------------------------------|
E|---------------------------------------------------------------------------|
Part 2(2:15-2:19)
e|------------------------------------11-13-11-------------------------------|
B|-18-18-16-16-13-13--11-11-----11-13----------------------------------------|
G|---------------------------------------------------------------------------|
D|---------------------------------------------------------------------------|
A|---------------------------------------------------------------------------|
E|---------------------------------------------------------------------------|
(2:19-2:26)
e|------------------------------------11---11---11---11----------------------|
B|-8-8-9-8-8-8-9-8-8-8-9-11--9-8-8/9-----9----9----9-------------------------|
G|---------------------------------------------------------------------------|
D|---------------------------------------------------------------------------|
A|---------------------------------------------------------------------------|
E|---------------------------------------------------------------------------|
(2:27-2:34)
e|--131313-11----11-13--13-13-11-----11-13--1313/15-15(x8)-------------------|
B|------------13------------------13-----------------------------------------|
G|---------------------------------------------------------------------------|
D|---------------------------------------------------------------------------|
A|---------------------------------------------------------------------------|
E|---------------------------------------------------------------------------|

e|-15-13/11-11-13-11---------------------------------------------------------|
B|---------------------------------------------------------------------------|
G|---------------------------------------------------------------------------|
D|---------------------------------------------------------------------------|
A|---------------------------------------------------------------------------|
E|---------------------------------------------------------------------------|
(2:35-3:04)
e|---------------------------------------------------------------------------|
B|----------8-------------8---------------8--------------8------------(X2)---|
G|--8--0\10---8-----0\10------8-----0\10-------8---0\10------10--7-----------|
D|-----------------------------------------------------------------8---------|
A|---------------------------------------------------------------------------|
E|---------------------------------------------------------------------------|

Repeat:
(3:05-3:12)- Section A

(3:13-3:33)-Section B

(3:33-3:35)- Section C

*Then end with the whole Chorus*


And there you go, FINISHED!

************************************

| /   slide up
| \   slide down
| h   hammer-on
| p   pull-off
| ~   vibrato
| +   harmonic
| x   Mute note
| b   Bend
| pb  Pre-bend
| br  Bend release
| pbr Pre-bend release
| brb Bend release bend

************************************
Добавлено: 25.02.2012
Вам также может быть интересно:
Другие материалы по этой песне:
  • Аккорды и текст

Страница создана 25.02.2012
http://primanota.ru/supercar/lucky-chords.htm
Привет, Гость.
Предлагаем пройти революционный курс по гитаре.
Подарок от PrimaNota.Ru, забирай!