PrimaNota.ru - самый крупный в мире бесплатный архив песенных текстов, аккордов, табулатур и нот


Superbus - Lola - аккорды и текст, таба, видео

Регистрация Запомнить меня
Войти через:  Facebook Google Twitter Vk Yandex Mail.ru

Superbus - Lola - аккорды и текст, таба, видео

Печатать
Просмотров: 171
Авторы музыки: Jennifer Ayache
Авторы текста: Jennifer Ayache
Lola
Superbus
Superbus - LOLA

e-mail: avrill_xx@yahoo.com


main riff that's played through the whole song:
riff qui se répète plusieurs fois durant la chanson
e|----------------------------------------------------------|
B|--7-7-7-7--7h8--7-7-7-7--7h8--5-5-5-5--5h7--3-3-3-3--3h5--|
G|----------------------------------------------------------|
D|----------------------------------------------------------|
A|----------------------------------------------------------|
E|----------------------------------------------------------|


Bm            A   
Allo Lola, c'est encore moi 
     G                 F# 
J'ai beaucoup pensé à toi Lola
Bm           A
Allo Lola ne raccroche pas 
G                   F#
Ne mets pas de hola Lola ola 

REFRAIN
Bm        A
Allo Lola Comme un garçon 
G                          A
J'ai le coeur qui fait boum et les cheveux longs
Bm        A 
Allo Lola Comme un garçon 
G                                      F#
C'est la première fois pour moi que tes yeux me font 
Bm              D                       A
Boum boum boum boum boum boum boum boum boum 
A           G
Ola Lola c'est
Bm               D                       A
Boum boum boum boum boum boum boum boum boum 
A           G
Lola c'est osé

Bm         A
Allo Lola, oui c'est bien moi 
  G                   
Je n'ai pas dormi pour toi
F# 
Je n'en reviens pas 
Bm            A
Allo Lola ne raccroche pas 
G                     F#
Lola lit dans l'eau delà Ma jolie Lola
 
REFRAIN
Bm        A
Allo Lola Comme un garçon 
G                          A
J'ai le coeur qui fait boum et les cheveux longs
Bm        A 
Allo Lola Comme un garçon 
G                                      F#
C'est la première fois pour moi que tes yeux me font 
Bm              D                       A
Boum boum boum boum boum boum boum boum boum 
A           G
Ola Lola c'est
Bm               D                       A
Boum boum boum boum boum boum boum boum boum 
A           G
Lola c'est osé

Bm D G A x2

riff: 
e|----------------------------|
B|--7-------7----7------------|
G|----7---7---7---------7-6---|
D|------9------9---9----------|
A|----------------------------|
E|----------------------------|

e|----------------------------------------|
B|--7-------7----7------------------------|
G|----7---7---7---------7-6--4-let ring---|
D|------9------9---9----------------------|
A|----------------------------------------|
E|----------------------------------------|




Bm           A            G    F#
Allo Lola comme un garçon          x2 


Bm              D                       A
Boum boum boum boum boum boum boum boum boum 
A           G
Ola Lola c'est
Bm               D                       A
Boum boum boum boum boum boum boum boum boum 
A           G
Lola c'est osé
Bm              D                       A
Boum boum boum boum boum boum boum boum boum 
A           G
Ola Lola c'est
Bm               D                       A
Boum boum boum boum boum boum boum boum boum 
A           G
Lola c'est osé

e|-----------------------------------------------------------------------|
B|-----------------------------------------------------------------------|
G|---11-11-11-11--11/12--11-11-11-11--11/12--9-9-9-9--9/11--7-7-7-7--7/9-|
D|----x--x--x--x---x--x---x--x--x--x---x--x--x-x-x-x--x--x--x-x-x-x--x-x-|
A|----9--9--9--9---9/10---9--9--9--9---9/10--7-7-7-7--7--9--5-5-5-5--5/7-|
E|-----------------------------------------------------------------------|
Добавлено: 26.05.2012
Другие материалы по этой песне:

Страница создана 26.05.2012
http://primanota.ru/superbus/lola-chords.htm
Привет, Гость.
Предлагаем пройти революционный курс по гитаре.
Подарок от PrimaNota.Ru, забирай!