PrimaNota.ru - самый крупный в мире бесплатный архив песенных текстов, аккордов, табулатур и нот


Sunsites - The Wood Between Worlds - таба

Регистрация Запомнить меня
Войти через:  Facebook Google Twitter Vk Yandex Mail.ru

Sunsites - The Wood Between Worlds - таба

Печатать
Просмотров: 84
Уроки эстрадного вокала в Санкт-Петербурге
		   "The Wood Between Worlds"                                        
 Band: "Sunsites"                               
 album: "Sunsites"                                  
 written by: Jesse Sprinkle    
 tabbed by:  Wes Marlan (lookymike@aol.com)             
 (C) 1996 Sunsites

*Capo 3rd fret (all notes and chords relative to capo)
*Keep your hand in the Am position for this cool little song. 

(repeat this first part once)
e----------------------------------------------------------------------
B-0---1---3---3-1-0-0---1---3---3h5p3---1---0---1p0-----1--0---1---0---
G--2---2---2---------2---2---2--------2--2----2-----2-2------2-2-----2-
D---2---2---2---------2---2---2-----------2---------------2----2-2-----
A----------------------------------------------------------------------
E----------------------------------------------------------------------

(then...)

e---------------------------------------------------------
B-----0h1p0-------0---0h1p0-----------0---0h1p0-------0h1-
G---2-------2-------2-------2-----2-----2-------2-----2---
D-------------2---------------2-----2---------------2-2---
A-0-------------0---------------0-----------------0-------
E---------------------------------------------------------

Long Live Lu
     
Добавлено: 09.10.2013
Другие материалы по этой песне:
  • Аккорды и текст

Страница создана 09.10.2013
http://primanota.ru/sunsites/the-wood-between-worlds-chords.htm
Привет, Гость.
Предлагаем пройти революционный курс по гитаре.
Подарок от PrimaNota.Ru, забирай!