PrimaNota.ru - самый крупный в мире бесплатный архив песенных текстов, аккордов, табулатур и нот


Sunset Sons - On The Road - таба, видео

Регистрация Запомнить меня
Войти через:  Facebook Google Twitter Vk Yandex Mail.ru

Sunset Sons - On The Road - таба, видео

Печатать
Просмотров: 250
Уроки эстрадного вокала в Санкт-Петербурге
-------------------------------------------------------------------------------
                             ON THE ROAD - Sunset Sons
-------------------------------------------------------------------------------
Tabbed by: Hanna Melander
Instagram: @cuztheymakeme

Tuning: standard, (E)
This is fairly easy to play :)


INTRO:

e|---4---4---4---4---4---4---4---4-------------------------------------------|
B|-5---5---5---5---5---5---5---5---------------------------------------------|
G|---------------------------------------------------------------------------|
D|---------------------------------------------------------------------------|
A|---------------------------------------------------------------------------|
E|---------------------------------------------------------------------------|

 VERSE: (Smell smoke, perfume, whisky and wine....)

e|---4---4---4---4---4---4---4---4-----5---5---5---5---5---5---5---5---------|
B|-5---5---5---5---5---5---5---5-----4---4---4---4---4---4---4---4-----------|
G|---------------------------------------------------------------------------|
D|---------------------------------------------------------------------------|
A|---------------------------------------------------------------------------|
E|---------------------------------------------------------------------------|

e|---4---4---4---4---4---4---4---4-----5---5---5---5---5---------------------|
B|-2---2---2---2---2---2---2---2-----4---4---4---4-----4---------------------|
G|---------------------------------------------------------------------------|
D|---------------------------------------------------------------------------|
A|---------------------------------------------------------------------------|
E|---------------------------------------------------------------------------|

(repeat throughout the verses)


CHORUS: (Baby I'll be on the road...)

e|---4---4---4---4---4---4---4---4-----2---2---2---2---2---2---2---2---------|
B|-5---5---5---5---5---5---5---5-----0---0---0---0---0---0---0---0-----------|
G|---------------------------------------------------------------------------|
D|---------------------------------------------------------------------------|
A|---------------------------------------------------------------------------|
E|---------------------------------------------------------------------------|

e|---4---4---4---4---4---4---4---4-----0---0---0---0---0---0---0---0---------|
B|-2---2---2---2---2---2---2---2---------------------------------------------|
G|-----------------------------------2---2---2---2---2---2---2---2-----------|
D|---------------------------------------------------------------------------|
A|---------------------------------------------------------------------------|
E|---------------------------------------------------------------------------|

(repeat throughout chourus)
Добавлено: 23.06.2016
Другие материалы по этой песне:
  • Аккорды и текст

Страница создана 23.06.2016
http://primanota.ru/sunset-sons/on-road-chords.htm
Привет, Гость.
Предлагаем пройти революционный курс по гитаре.
Подарок от PrimaNota.Ru, забирай!