PrimaNota.ru - самый крупный в мире бесплатный архив песенных текстов, аккордов, табулатур и нот


Sunset Rubdown - Jason Believe Me You Cant Trust Your Dreams - аккорды и текст, видео

Регистрация Запомнить меня
Войти через:  Facebook Google Twitter Vk Yandex Mail.ru

Sunset Rubdown - Jason Believe Me You Cant Trust Your Dreams - аккорды и текст, видео

Печатать
Просмотров: 50
Jason Believe Me You Cant Trust Your Dreams
Sunset Rubdown
This is how I play the song. Suggestions and corrections welcome!

Intro Tab
* The last note should be replaced with the first C chord when you play

e|--8-7-5---7-5-3---5-3-1---3-1-0---1-0-----0-----------|
B|--------------------------------------3-----3-0-1-----|
G|------------------------------------------------------|
D|------------------------------------------------------|
A|------------------------------------------------------|
E|------------------------------------------------------|

C        Bm            Am                 Gm
Jason, believe me, you can't trust your dreams 
           F         E            F
when they take you alone in your room
C               Bm         Am             Gm
Some of them showgirls and some of them queens, 
     F           Ab            C
but none of them who you swore to

C                                Am  Em
Hold on, Ho-oh-oh-oh-oh-oh-oh-oh-old on 
            Am        Em        Bb
'til they summon old bones of mothers of old
Ab                          F#       F
You say love's gonna die, they say love's gonna come home


e|--8-7-5---7-5-3---5-3-1---3-1-0---1-0-----0-----------|
B|--------------------------------------3-----3-0-1-----|
G|------------------------------------------------------|
D|------------------------------------------------------|
A|------------------------------------------------------|
E|------------------------------------------------------|

C               Bm               Am            Gm
Young man, you shake hands too quickly with captains 
      F         E            F
that take you alone in the night
C              Bm           Am         Gm
What's in the hull? Is it femurs and skulls, 
      F             Ab        C
then why are their hands so slight?

C                                Am  Em
So hold on, Ho-oh-oh-oh-oh-oh-oh-old on 
         Am      Em       Bb
to the resident bones of sons who roam
Ab                         F#       F                 
You say you're gonna die, they say you're gonna come home

Am                  Em        F                    C
So sleep with your eyes open, oh, sleep with your eyes open
F              C                    Ab                    
Sleep on your back, stave off the attack of carnivorous things
Am                  Em        F                    C
So sleep with your eyes open, oh, sleep with your eyes open
F              C                    Ab                   
Sleep on your back, stave off the attack of carnivorous things
Добавлено: 02.12.2015
Вам также может быть интересно:
Другие материалы по этой песне:
  • Аккорды и текст

Страница создана 02.12.2015
http://primanota.ru/sunset-rubdown/jason-believe-me-you-cant-trust-your-dreams-chords.htm
Привет, Гость.
Предлагаем пройти революционный курс по гитаре.
Подарок от PrimaNota.Ru, забирай!