PrimaNota.ru - самый крупный в мире бесплатный архив песенных текстов, аккордов, табулатур и нот


Sunrise Avenue - Funkytown - таба, видео

Регистрация Запомнить меня
Войти через:  Facebook Google Twitter Vk Yandex Mail.ru

Sunrise Avenue - Funkytown - таба, видео

Печатать
Просмотров: 131
Sunrise Avenue- Funkytown
Best Of Album 'Fairytales'
Tabbed by Karri
This is my cover; maybe it helps: https://www.youtube.com/watch?v=rdKkWbEPCv0
Intro:

Abm B Db Eb

Verse:

E|------------------|------------------|------------------|------------------|------------------|
B|------------------|------------------|------------------|------------------|------------------|
G|------------------|------------------|------------------|------------------|------------------|
D|------------------|------------------|------------------|------------------|------------------|
A|---------6-6------|---------6-6------|---------6-6------|-------------6-6--|------------------|
E|-4-4---7-------7--|-4-4---7-------7--|-4-4---7-------7--|-4-4-6-6-7-7------|-0-0---6-7-7---6--|


                                                                                                
E|------------------|------------------|------------------|
B|------------------|------------------|------------------|
G|------------------|------------------|------------------|
D|------------------|------------------|------------------|
A|------------------|------------------|------------------|
E|-0-0---6-7-7---6--|-0-0---6-7-7---6--|-0-0-7-7-6-6-4-4--|  2x


Abm                     F#
I wanna get to the funkytown
F#m                     E
I wanna get to the funkytown

Chorus:
                         Abm     B
Where you set my soul on fire 
                       Db
I don't wanna waste my time 
      Eb
Gimme more (2x) 
                       Abm     B
I know that you'll be mine 
                       Db
I don't wanna waste my life
      Eb
Gimme more, Gimme more, gimme more more more more


E|------------------|------------------|------------------|------------------|------------------|
B|------------------|------------------|------------------|------------------|------------------|
G|------------------|------------------|------------------|------------------|------------------|
D|------------------|------------------|------------------|------------------|------------------|
A|---------6-6------|---------6-6------|---------6-6------|-------------6-6--|------------------|
E|-4-4---7-------7--|-4-4---7-------7--|-4-4---7-------7--|-4-4-6-6-7-7------|-0-0---6-7-7---6--|


                                                                                                
E|------------------|------------------|------------------|
B|------------------|------------------|------------------|
G|------------------|------------------|------------------|
D|------------------|------------------|------------------|
A|------------------|------------------|------------------|
E|-0-0---6-7-7---6--|-0-0---6-7-7---6--|-0-0-7-7-6-6-4-4--|  2x


Chorus:
                         Abm     B
Where you set my soul on fire 
                       Db
I don't wanna waste my time 
      Eb
Gimme more (2x) 
                       Abm     B
I know that you'll be mine 
                       Db
I don't wanna waste my life
      Eb
Gimme more, Gimme more, gimme more more more more

Abm B Db Eb


Rap Part- (no guitar; if you've got tabs for it, leave a comment)

Abm                     F#
I wanna get to the funkytown
F#m                     E
I wanna get to the funkytown

Chorus:
                         Abm     B
Where you set my soul on fire 
                       Db
I don't wanna waste my time 
      Eb
Gimme more (2x) 
                       Abm     B
I know that you'll be mine 
                       Db
I don't wanna waste my life
      Eb
Gimme more, Gimme more, gimme more more more more

Abm B Db Eb

Добавлено: 14.07.2015
Другие материалы по этой песне:
  • Аккорды и текст

Страница создана 14.07.2015
http://primanota.ru/sunrise-avenue/funkytown-chords.htm
Привет, Гость.
Предлагаем пройти революционный курс по гитаре.
Подарок от PrimaNota.Ru, забирай!