PrimaNota.ru - самый крупный в мире бесплатный архив песенных текстов, аккордов, табулатур и нот


Sunny Day Real Estate - Round - текст песни, таба, видео

Регистрация Запомнить меня
Войти через:  Facebook Google Twitter Vk Yandex Mail.ru

Sunny Day Real Estate - Round - текст песни, таба, видео

Печатать
Просмотров: 132
Tabbed by: meg127
Email: meghan127@comcast.net


Tuning: Standard

e|------------------------------------------------------------------------|
B|-------------------------------------------------6h8--888---6h8---888---|
G|------------------------------------------------------------------------|
D|---5------------------------------5-------------------------------------|
A|---3------------------------------3-------------------------------------|
E|------------------------------------------------------------------------|

e|-------------------------------------------------------------------|
B|-------------------------------------------------------------------|
G|------------5----7h5--------------5---7h8-------------5----7h8-----|
D|--------5---------------------5-------------------5----------------|
A|-7h8--------------------7h8------------------7h8-------------------|
E|-------------------------------------------------------------------|

e|-----------------------|
B|---6--5--------5-------|
G|----------7-------5----|
D|-----------------------|
A|-----------------------|
E|-----------------------|

repeat 


e|-------------------------------------------|
B|-------------------------------------------|
G|-----------------------5--4----------------|
D|-----------------------------5--3--2-------|x4
A|---7------6----------------------------3---|
E|---5------8--------------------------------|


repeat whole thing minus the intro

e|--------------------------------|
B|--------------------------------|
G|------------------------777777--|
D|---7h6---7h6---7h6--------------|x3
A|------------------------555555--|
E|--------------------------------|

e|-------------------------|
B|-------------------------|
G|-------------------------|
D|--5555-5555-5555-5555----|
A|--3333-3333-3333-3333----|
E|-------------------------|

repeat those two parts twice

e|------------------------------------------------------------------|
B|------------------------------------------------------------------|
G|------------------------------------------------------------------|
D|--5555---7777-----------------------------------------------------|
A|--3333---5555--7777--7777----333----2--22--333----222--22---------|
E|---------------5555--5555----111----------------------------------|

repeat whole song minus the intro



| /  slide up
| \  slide down
| h  hammer-on
| p  pull-off
| ~  vibrato
| +  harmonic
| x  Mute note
Добавлено: 26.05.2012
Другие материалы по этой песне:
  • Аккорды и текст

Страница создана 26.05.2012
http://primanota.ru/sunny-day-real-estate/round-chords.htm
Привет, Гость.
Предлагаем пройти революционный курс по гитаре.
Подарок от PrimaNota.Ru, забирай!