PrimaNota.ru - самый крупный в мире бесплатный архив песенных текстов, аккордов, табулатур и нот


Sunny Cow Girls - Dust Will Settle - таба, видео

Регистрация Запомнить меня
Войти через:  Facebook Google Twitter Vk Yandex Mail.ru

Sunny Cow Girls - Dust Will Settle - таба, видео

Печатать
Просмотров: 28
Уроки эстрадного вокала в Санкт-Петербурге
-------------------------------------------------------------------------------
                             SONG NAME - Band Name
-------------------------------------------------------------------------------
Tabbed by:
E-mail:
I've looked and this is the only tab there is for this song and I think that it's accurate
The timing's hard to get but playing along with the song helps
Tuning: Standard

e|-------------------------1------------------------------------1----|
B|---------------------------4-1-4----------------------------4---4--|
G|-------------------------------------------------------------------|
D|------------------1-----------------------------------1------------|
A|--------------1h3---------------------------------1h3--------------|
E|--1--3h4--3h4-------------------------1--3h4--3h4------------------|




************************************

| /   slide up
| \   slide down
| h   hammer-on
| p   pull-off
| ~   vibrato
| +   harmonic
| x   Mute note
| b   Bend
| pb  Pre-bend
| br  Bend release
| pbr Pre-bend release
| brb Bend release bend

************************************
Добавлено: 28.09.2015
Другие материалы по этой песне:
  • Аккорды и текст

Страница создана 28.09.2015
http://primanota.ru/sunny-cow-girls/dust-will-settle-chords.htm
Привет, Гость.
Предлагаем пройти революционный курс по гитаре.
Подарок от PrimaNota.Ru, забирай!