PrimaNota.ru - самый крупный в мире бесплатный архив песенных текстов, аккордов, табулатур и нот


Sunk Loto - Sunken Eyes - текст песни, таба, бас-таба, видео

Регистрация Запомнить меня
Войти через:  Facebook Google Twitter Vk Yandex Mail.ru

Sunk Loto - Sunken Eyes - текст песни, таба, бас-таба, видео

Печатать
Просмотров: 191
          Band : Sunk Loto
          Song : Sunken Eyes
          
          Tabbed by Jarrod Rueff
          jrueff_2001@yahoo.com.au
          
          E-mail me if you find anything wrong
          
          
          TUNING IN DROPPED C (C-G-C-F-A-D)
          
          
          
              INTRODUCTION
                                                                         
          D |--------------------------------------------------------------|
          A |--------------------------------------------------------------|
          F |--------------------------------------------------------------|
          C |--------------------0--3-3-----0--3----3----x-x---0-3---------|X4
          G |5-------------23232-0--3-3-----0--3----3----x-x---0-3---------|
          C |--6---0---3---------0--3-3-----0--3----3----x-x---0-3---------|
          
          
              VERSE   (THIS 4/2 BIT ISIN'T PLAYED AFTER THE INTRO)                 
          
          D |---------------------------|
          A |-----------------4---------|
          F |-----------------2---------|
          C |-0--2--0--2--3-------1-----|x4
          G |-0--2--0--2--3-------1-----|
          C |-0--2--0--2--3-------1-----|
          
          
              VERSE 2                      
          
          D |------------------------|
          A |------------------------|
          F |------------------------|
          C |-0-2-0-2--2--3----0-----|x4
          G |----------2--3----0-----|
          C |----------2--3----0-----|
          
          
          THIS IS THE QUIET PART JUST BEFORE THE 
          CHOURS EXPLORE WITH SOME DISTORTION 
          EFFECTS TO GET THE SOUND  
          
          
            PRE CHOURS 
          
          D |------------------|
          A |------------------|
          F |------------------|
          C |-2-2-----2-2------|
          G |-2-2-232-2-2-232--|
          C |-2-2-----2-2------|
          
          
                                                                        
                CHOURS     / = SLIDE TO NEXT FRETS
          D |-----------------------------------------------------------|
          A |-----------------------------------------------------------|
          F |-----------------------------------------------------------|
          C |-2--2-2-2-2--2--2---2---/--12--12-12-12-12--12--12---12--/-|
          G |-2--2-2-2-2--2--2---2---/--10--10-10-10-10--10--10---10--/-|
          C |-2--2-2-2-2--2--2---2---/--10--10-10-10-10--10--10---10--/-|
          
                                                       
          D |------------------------------------------|
          A |------------------------------------------|
          F |--------------------------1---1---1---1---|
          C |-2--2-2-2-2--2--2---2--/--0---0---0---0---|
          G |-2--2-2-2-2--2--2---2--/--0---0---0---0---|
          C |-2--2-2-2-2--2--2---2--/--0---0---0---0---|
          
          
          VERSE X4
          
          VERSE 2 X4
          
          PRE CHOURS
          
          CHOURS X2
          
          VERSE x4
          
          VERSE 2 X4
          
          PRE CHOURS
          
          CHOURS X3
          
          (THE NEXT DODGY BIT IS DONE IN BASS, 
          THERE ARE A FEW HARMONICS IN THERE THOUGH)
          
          VERSE X4
          
          CHOURS X4
          
          INTRO (OUTRO) X4
          
          


==

          band :sunk loto
          song:sunken eyes
          
          
          TABBED BY KEVIN PARKER
          loopezz@hotmail.com
          
          tuning :C G C F A D
          
          INTRO RIFF:
          D|--------------------------------|--------------------------------|
          A|--------------------------------|--------------------------------|
          F|--------------------------------|--------------------------------|
          C|---------------------0--3-3-----|0--3----3----xx---0-3-----------|
          G|-5-------------23232-0--3-3-----|0--3----3----xx---0-3-----------|
          C|---6---0---3---------0--3-3-----|0--3----3----xx---0-3-----------|x4
          
          next bit
          D|-------------------4------------|
          A|-------------------3------------|
          F|-------------------2------------|
          C|-0--2---0---2--3--------1-------|
          G|-0--2---0---2--3--------1-------|
          C|-0--2---0---2--3--------1-------|x4
          
          
          verse(just fucked up distortion effects)
          D|--------------------------------|--------------------------------|
          A|--------------------------------|--------------------------------|
          F|--------------------------------|--------------------------------|
          C|0------------------------3------|0------------------------3------|
          G|0------------------------3------|0------------------------3------|
          C|0------------------------3------|0------------------------3------|
          
          interlude
          
          D|--------------------------------|                                 
          A|--------------------------------|                                 
          F|--------------------------------|                                 
          C|-0-2-0-2--2--3----0-------------|                                 
          G|----------2--3----0-------------|                                 
          C|----------2--3----0-------------| x4
          
          quite bit with wah pedal.
          D|--------------------------------|--------------------------------|
          A|--------------------------------|--------------------------------|
          F|--------------------------------|--------------------------------|
          C|-2----2-------2------2----------|2-----------------2-------------|
          G|-2----2-------2------2----------|2-----------------2-------------|
          C|-2----2-------2------2----------|2-----------------2-------------|
          
          chorus
          D|--------------------------------|--------------------------------|
          A|--------------------------------|--------------------------------|
          F|--------------------------------|--------------------------------|
          C|-2--2-2-2-2---2---2------2------|--10--10--10-------10-----------|
          G|-2--2-2-2-2---2---2------2------|--10--10--10-------10-----------|
          C|-2--2-2-2-2---2---2------2------|--10--10--10-------10-----------| continue...
          
          D|--------------------------------|--------------------------------|
          A|--------------------------------|--------------------------------|
          F|--------------------------------|--------------------------------|
          C|2----2--2--2--2------2----------|--12---12--------12--------12---|
          G|2----2--2--2--2------2----------|--12---12--------12--------12---|
          C|2----2--2--2--2------2----------|--12---12--------12--------12---|
          
          
          no guitar in the strange bit
          
          well its all there, just a matter of putting them all in order.
          if i've missed something out email me.
Добавлено: 18.06.2012
Другие материалы по этой песне:

Страница создана 02.05.2012
http://primanota.ru/sunk-loto/sunken-eyes-chords.htm
Привет, Гость.
Предлагаем пройти революционный курс по гитаре.
Подарок от PrimaNota.Ru, забирай!