PrimaNota.ru - самый крупный в мире бесплатный архив песенных текстов, аккордов, табулатур и нот


Sungha Jung - Tears In Heaven - таба, видео

Регистрация Запомнить меня
Войти через:  Facebook Google Twitter Vk Yandex Mail.ru

Sungha Jung - Tears In Heaven - таба, видео

Печатать
Просмотров: 212
Title: Tears In Heaven
Artist: Sungha Jung
Tabbed by: Justin M. Alijuddin (Basilan State College Laboratory High School)
Age: 15
Location: Sta. Clara, Lamitan City Basilan Philippines
Tuning: Standard
Capo: None
Arranged by: Masa Sumide
Copyright: Songsterr.com


NOTE: Not all parts of the song are written.There are still missing notes to be played 
especially on the bridge part..:)




  W                    Q      E  E  E  Q.   Q     E  E  E  Q.
   ^                    ^                   ^
e|-0------------------|-0---------------0--|-------0------------|
B|-0------------------|-0------------------|--------------------|
G|-1------------------|-2------------2-----|-3--------3---------|
D|-4------------------|-4---------4--------|-5-----------5------|
A|-2------------------|-3------3-----------|-4--------------4---|
E|-0------------------|-0------------------|-0------------------|

   H       Q     Q      Q      E  E  E  Q.   E  E  E  E  Q
   ^                    ^
e|---------0----------|-0---------------0--|-------------0------|
B|---------------0----|-0------------------|--------------------|
G|-2------------------|-1------------1-----|----------2---------|
D|-4------------------|-4---------4--------|-------4------------|
A|-3------------------|-2------2-----------|----3---------------|
E|-0------------------|-0------------------|-0------------------|

   Q    E  E  E  E  E   Q      E  E  E  Q.
   ^                    ^
e|------0-----------0-|--------0--------0--|--------------------|
B|--------------------|-----------0--------|--------------------|
G|-3-------3-----3----|-2------------2-----|--------------------|
D|-5----------5-------|-4------------------|--------------------|
A|-4------------------|-3------------------|--------------------|
E|-0------------------|-0------------------|--------------------|

             |--3--|
   Q   E  E  E. S  E  E  E   Q    Q    Q    E   E
e|-----------4--5--4-------|-7---------7-------------|
B|--------5-----------5--0-|----------------7--s9----|
G|-----4-------------------|------6------------------|
D|-------------------------|-------------------------|
A|-------------------------|-6-----------------------|
E|-0-----------------------|-------------------------|

    Q    Q     Q     Q        Q     Q     Q     Q
e|-------------0-----------|--------------0----------|
B|-------------------9-----|-------------------------|
G|-------8-----------------|--------8----------------|
D|-------------------------|--------------------9----|
A|-------------------------|-------------------------|
E|--9----------------------|--7----------------------|

   E   E   E    E   Q   Q    Q   E   E   Q    E   E
e|--------------0--h5------|-4----------------4------|
B|---------2---------------|-----5--h7--p5----5------|
G|-----4-------------------|------------------4------|
D|-------------------------|------------------6------|
A|-0--------------------0--|-------------------------|
E|-------------------------|-4-----------------------|

   Q    E   E   Q    Q        Q   Q    E   Q    E
e|-2-----------------------|-----------7--------7----|
B|-2-----------------2-----|-----------7--------7----|
G|-2------------2----------|-----------8--h9----8----|
D|------2--h4--------------|------7------------------|
A|-------------------------|-------------------------|
E|-2-----------------------|-s7----------------------|

   E   E   E   E   E  E  Q   Q    Q    E  E   Q
e|---------12------11----7-|-----------7-------------|
B|-----9---12------12----7-|--------------7--s9------|
G|-------------9---------6-|------6------------------|
D|-------------------------|-------------------------|
A|-----------------------6-|-------------------------|
E|-0-----------------------|-------------------------|

    Q     Q     Q     Q       Q     Q     Q      Q
e|--------------0----------|--------------0----------|
B|-------------------------|-------------------------|
G|--------8----------------|--------8----------------|
D|--------------------9----|---------------------9---|
A|-------------------------|-------------------------|
E|--9----------------------|--7----------------------|

   E   E   E   E   Q    Q    Q   E   E   Q   E   E
e|-------------0--h5-------|-4---------------4-------|
B|---------2---------------|-----5--h7--p5---5-------|
G|-----4-------------------|-----------------4-------|
D|-------------------------|-----------------6-------|
A|-0--------------------0--|-------------------------|
E|-------------------------|-4-----------------------|

   Q    E   E    Q    Q      Q      Q     Q     Q
e|-2-----------------------|-^------------^----------|
B|-2------------------2----|-5------------4----------|
G|-2-------------2---------|-2------------2----------|
D|------2--h4--------------|-4------------4----------|
A|-------------------------|-2------2-----3-----3----|
E|-2-----------------------|-------------------------|

    Q     Q      Q      Q     Q     Q     Q     Q
e|-------------------------|-------------------------|
B|---------------5------5--|--------------7----s4----|
G|---------------4------4--|-------------------------|
D|--------6----------------|--------6----------------|
A|-s4----------------------|--4----------------------|
E|-------------------------|-------------------------|

   Q     Q      Q      Q     E  E  E  E  E  E  E  E
e|-------------------------|----0-----------------0--|
B|---------------------4---|-------4-----------4-----|
G|--------------1----------|----------1-----1--------|
D|-------4-----------------|-------------4-----------|
A|-3-----------------------|-3-----------------------|
E|-------------------------|-------------------------|

                                  |--3--|       |-3-|
    Q     Q    Q       Q     Q    E  E  E  Q.   E  Q
e|-------------------------|---------------0---------|
B|--------------3------3---|------------3-------1-s2-|
G|--------------1------1---|---------1---------------|
D|--------3----------------|------3------------------|
A|--2----------------------|-2-----------------------|
E|-------------------------|-------------------------|

    Q      Q     Q    E  E   Q     Q      Q     Q
e|-------------------------|-2-----------s4----------|
B|---------------0----2----|-2-----------s4----------|
G|-------------------------|-------------------------|
D|---------3---------------|-------------------------|
A|-------------------------|-1-----1------3----------|
E|--4-----------------4----|--------------------4----|

   Q    E   E   Q     Q      Q    Q    E    E    Q
e|------4--s5---5-----2----|-2-----------------------|
B|------2-------2----------|-2---------5---------5---|
G|------2-------2----------|-2---------2---------2---|
D|-------------------------|-----------2---------2---|
A|-------------------------|------4----4---------4---|
E|-2-----------------------|-------------------------|

   Q     E    E   Q.    E    Q    Q    Q     E    E
e|-------------------------|-^----4------------------|
B|-------5--------5--------|-4---------------7----5--|
G|-x-----6--------6--------|-4-----------------------|
D|-x-----7--------7--------|-7-----------------------|
A|-x-----------------------|-------------------------|
E|-------7--------7--------|-7---------7-------------|

                                         |----3----|
   Q      Q     Q      Q     Q   E   E   Q    Q    Q
e|---------------------0---|-----------------------0-|
B|--------------7----------|------------------7------|
G|-------------------------|-------------5-----------|
D|--------6----------------|-----6--h7---------------|
A|-------------------------|-------------------------|
E|-0-----------------------|-0-----------------------|

   |---3----|    |---3---|   |---3----|    |---3---|
   Q   Q    Q    Q   Q   Q   Q   Q    Q    Q   Q   Q
e|-------------------0-----|-------------------0-----|
B|---------------7-------7-|---------------7-------0-|
G|----------4--------------|----------5--------------|
D|-----6-------------------|-----7-------------------|
A|-------------------------|-------------------------|
E|-0-----------------------|-0-----------------------|

    Q
e|-------------------------|-------------------------|
B|-------------------------|-------------------------|
G|--5----------------------|-------------------------|
D|-------<7>---------------|-------------------------|
A|-------------------------|-------------------------|
E|-------------------------|-------------------------|

   Q   E  E  T. S  E  E  E.  Q    Q    Q    E   E
e|-----------4--5--4-------|-7---------7-------------|
B|--------5-----------5--0-|----------------7--s9----|
G|-----4-------------------|------6------------------|
D|-------------------------|-------------------------|
A|-------------------------|-6-----------------------|
E|-0-----------------------|-------------------------|

    Q    Q     Q     Q        Q     Q     Q     Q
e|-------------0-----------|--------------0----------|
B|-------------------9-----|-------------------------|
G|-------8-----------------|--------8----------------|
D|-------------------------|--------------------9----|
A|-------------------------|-------------------------|
E|--9----------------------|--7----------------------|

   E   E   E    E   Q   Q    Q   E   E   Q    E   E
e|--------------0--h5------|-4----------------4------|
B|---------2---------------|-----5--h7--p5----5------|
G|-----4-------------------|------------------4------|
D|-------------------------|------------------6------|
A|-0--------------------0--|-------------------------|
E|-------------------------|-4-----------------------|

   Q    E   E   Q    Q        Q   Q    E   Q    E
e|-2-----------------------|-----------7--------7----|
B|-2-----------------2-----|-----------7--------7----|
G|-2------------2----------|-----------8--h9----8----|
D|------2--h4--------------|------7------------------|
A|-------------------------|-------------------------|
E|-2-----------------------|-s7----------------------|

   E   E   E   E   E  E  Q   Q    Q    E  E   Q
e|---------12------11----7-|-----------7-------------|
B|-----9---12------12----7-|--------------7--s9------|
G|-------------9---------6-|------6------------------|
D|-------------------------|-------------------------|
A|-----------------------6-|-------------------------|
E|-0-----------------------|-------------------------|

    Q     Q     Q     Q       Q     Q     Q      Q
e|--------------0----------|--------------0----------|
B|-------------------------|-------------------------|
G|--------8----------------|--------8----------------|
D|--------------------9----|---------------------9---|
A|-------------------------|-------------------------|
E|--9----------------------|--7----------------------|

   E   E   E   E   Q    Q    Q   E   E   Q   E   E
e|-------------0--h5-------|-4---------------4-------|
B|---------2---------------|-----5--h7--p5---5-------|
G|-----4-------------------|-----------------4-------|
D|-------------------------|-----------------6-------|
A|-0--------------------0--|-------------------------|
E|-------------------------|-4-----------------------|

   Q    E   E    Q    Q      Q      Q     Q     Q
e|-2-----------------------|-^------------^----------|
B|-2------------------2----|-5------------4----------|
G|-2-------------2---------|-2------------2----------|
D|------2--h4--------------|-4------------4----------|
A|-------------------------|-2------2-----3-----3----|
E|-2-----------------------|-------------------------|

    Q     Q      Q      Q     Q     Q     Q     Q
e|-------------------------|-------------------------|
B|---------------5------5--|--------------7----s4----|
G|---------------4------4--|-------------------------|
D|--------6----------------|--------6----------------|
A|-s4----------------------|--4----------------------|
E|-------------------------|-------------------------|

   Q     Q      Q      Q     E  E  E  E  E  E  E  E
e|-------------------------|----0-----------------0--|
B|---------------------4---|-------4-----------4-----|
G|--------------1----------|----------1-----1--------|
D|-------4-----------------|-------------4-----------|
A|-3-----------------------|-3-----------------------|
E|-------------------------|-------------------------|

                                  |--3--|       |-3-|
    Q     Q    Q       Q     Q    E  E  E  Q.   E  Q
e|-------------------------|---------------0---------|
B|--------------3------3---|------------3-------1-s2-|
G|--------------1------1---|---------1---------------|
D|--------3----------------|------3------------------|
A|--2----------------------|-2-----------------------|
E|-------------------------|-------------------------|

    Q      Q     Q    E  E   Q     Q      Q     Q
e|-------------------------|-2-----------s4----------|
B|---------------0----2----|-2-----------s4----------|
G|-------------------------|-------------------------|
D|---------3---------------|-------------------------|
A|-------------------------|-1-----1------3----------|
E|--4-----------------4----|--------------------4----|

   Q    E   E   Q     Q      Q    Q    E    E    Q
e|------4--s5---5-----2----|-2-----------------------|
B|------2-------2----------|-2---------5---------5---|
G|------2-------2----------|-2---------2---------2---|
D|-------------------------|-----------2---------2---|
A|-------------------------|------4----4---------4---|
E|-2-----------------------|-------------------------|

   Q     E    E   Q.    E    Q    Q    Q     E    E
e|-------------------------|-^----4------------------|
B|-------5--------5--------|-4---------------7----5--|
G|-x-----6--------6--------|-4-----------------------|
D|-x-----7--------7--------|-7-----------------------|
A|-x-----------------------|-------------------------|
E|-------7--------7--------|-7---------7-------------|

   Q      Q     Q      Q      Q     Q      Q      Q
e|---------------------0---|----------------------0--|
B|--------------7----------|---------------7---------|
G|-------------------------|--------5----------------|
D|--------6----------------|--------7----------------|
A|-------------------------|-------------------------|
E|-0-----------------------|--0----------------------|

                             ^
   Q    Q    E    E     Q    H         E   E   E   E
e|------0----0-------------|-0-----------------------|
B|------7----7-------------|-0-----------------------|
G|------4----4-------------|-1---------x-------------|
D|------6----6-------------|-4---------x-------------|
A|-------------------------|-2---------x-------------|
E|-0--------------------0--|-0-------------0---1---2-|

   Q     Q     Q      Q      E  E  Q      Q       Q
e|-------------7-----------|-5-----5-----------------|
B|-------------0-----------|-3-----3-------------s8--|
G|-------------------------|-2-----2-------------s7--|
D|-------0------------0----|---------------------s9--|
A|-------------------------|-------------------------|
E|-3-----------------------|-2-----2-----------------|

    Q     Q     Q      Q       Q    Q    Q      Q
e|---------------------0---|--------------------2----|
B|--------------8----------|-s10----------------5----|
G|--------------7----------|-s-9----9----x------2----|
D|--------9----------------|-s11---------x-----------|
A|-------------------------|-s-0---------x-----------|
E|--0----------------------|-------------x-----------|


    Q      Q      Q     Q    Q    E   E    S  E.  Q
e|----------------------2--|-2-------------5------7--|
B|----------------5--------|---------------5------7--|
G|---------2---------------|------2---------------8--|
D|--0----------------------|-------------------------|
A|-------------------------|-4-------------4---------|
E|-------------------------|-------------------------|

    Q     Q      Q     Q     Q.          E     H
e|---------------------7---|-^-----------------^-----|
B|-------------------------|-5-----------------7-----|
G|---------------8---------|-4-----------------4-----|
D|--------7----------------|-------------------------|
A|-------------------------|-4-----------------6-----|
E|--7----------------------|-------------------------|

   Q   E  E  T. S  E  E  E.  Q    Q    Q    E   E
e|-----------4--5--4-------|-7---------7-------------|
B|--------5-----------5--0-|----------------7--s9----|
G|-----4-------------------|------6------------------|
D|-------------------------|-------------------------|
A|-------------------------|-6-----------------------|
E|-0-----------------------|-------------------------|

    Q    Q     Q     Q        Q     Q     Q     Q
e|-------------0-----------|--------------0----------|
B|-------------------9-----|-------------------------|
G|-------8-----------------|--------8----------------|
D|-------------------------|--------------------9----|
A|-------------------------|-------------------------|
E|--9----------------------|--7----------------------|

   E   E   E    E   Q   Q    Q   E   E   Q    E   E
e|--------------0--h5------|-4----------------4------|
B|---------2---------------|-----5--h7--p5----5------|
G|-----4-------------------|------------------4------|
D|-------------------------|------------------6------|
A|-0--------------------0--|-------------------------|
E|-------------------------|-4-----------------------|

   Q    E   E   Q    Q        Q   Q    E   Q    E
e|-2-----------------------|-----------7--------7----|
B|-2-----------------2-----|-----------7--------7----|
G|-2------------2----------|-----------8--h9----8----|
D|------2--h4--------------|------7------------------|
A|-------------------------|-------------------------|
E|-2-----------------------|-s7----------------------|

   E   E   E   E   E  E  Q   Q    Q    E  E   Q
e|---------12------11----7-|-----------7-------------|
B|-----9---12------12----7-|--------------7--s9------|
G|-------------9---------6-|------6------------------|
D|-------------------------|-------------------------|
A|-----------------------6-|-------------------------|
E|-0-----------------------|-------------------------|

    Q     Q     Q     Q       Q     Q     Q      Q
e|--------------0----------|--------------0----------|
B|-------------------------|-------------------------|
G|--------8----------------|--------8----------------|
D|--------------------9----|---------------------9---|
A|-------------------------|-------------------------|
E|--9----------------------|--7----------------------|

   E   E   E   E   Q    Q    Q   E   E   Q   E   E
e|-------------0--h5-------|-4---------------4-------|
B|---------2---------------|-----5--h7--p5---5-------|
G|-----4-------------------|-----------------4-------|
D|-------------------------|-----------------6-------|
A|-0--------------------0--|-------------------------|
E|-------------------------|-4-----------------------|

   Q    E   E    Q    Q      Q      Q     Q     Q
e|-2-----------------------|-^------------^----------|
B|-2------------------2----|-5------------4----------|
G|-2-------------2---------|-2------------2----------|
D|------2--h4--------------|-4------------4----------|
A|-------------------------|-2------2-----3-----3----|
E|-2-----------------------|-------------------------|

    Q     Q      Q      Q     Q     Q     Q     Q
e|-------------------------|-------------------------|
B|---------------5------5--|--------------7----s4----|
G|---------------4------4--|-------------------------|
D|--------6----------------|--------6----------------|
A|-s4----------------------|--4----------------------|
E|-------------------------|-------------------------|

   Q     Q      Q      Q     E  E  E  E  E  E  E  E
e|-------------------------|----0-----------------0--|
B|---------------------4---|-------4-----------4-----|
G|--------------1----------|----------1-----1--------|
D|-------4-----------------|-------------4-----------|
A|-3-----------------------|-3-----------------------|
E|-------------------------|-------------------------|

                                  |--3--|       |-3-|
    Q     Q    Q       Q     Q    E  E  E  Q.   E  Q
e|-------------------------|---------------0---------|
B|--------------3------3---|------------3-------1-s2-|
G|--------------1------1---|---------1---------------|
D|--------3----------------|------3------------------|
A|--2----------------------|-2-----------------------|
E|-------------------------|-------------------------|

    Q      Q     Q    E  E   Q     Q      Q     Q
e|-------------------------|-2-----------s4----------|
B|---------------0----2----|-2-----------s4----------|
G|-------------------------|-------------------------|
D|---------3---------------|-------------------------|
A|-------------------------|-1-----1------3----------|
E|--4-----------------4----|--------------------4----|

   Q    E   E   Q     Q      Q    Q    E    E    Q
e|------4--s5---5-----2----|-2-----------------------|
B|------2-------2----------|-2---------5---------5---|
G|------2-------2----------|-2---------2---------2---|
D|-------------------------|-----------2---------2---|
A|-------------------------|------4----4---------4---|
E|-2-----------------------|-------------------------|

   Q     E    E   Q.    E    Q    Q    Q     E    E
e|-------------------------|-^----4------------------|
B|-------5--------5--------|-4---------------7----5--|
G|-x-----6--------6--------|-4-----------------------|
D|-x-----7--------7--------|-7-----------------------|
A|-x-----------------------|-------------------------|
E|-------7--------7--------|-7---------7-------------|

                                          |----3---|
    Q     Q      Q      Q    Q     Q      Q    Q   Q
e|----------------------0--|-----------------------0-|
B|---------------7---------|-------------------7-----|
G|-------------------------|--------------5----------|
D|--------6----------------|-------7-----------------|
A|-------------------------|-------------------------|
E|--0----------------------|-0-----------------------|

   |---3----|    |---3--|    |---3---|   |---3---|
   Q   Q    Q    Q   Q  Q    Q   Q   Q   Q   Q   Q
e|-------------------0-----|-----------------0-------|
B|---------------7------7--|-------------7-------7---|
G|----------4--------------|---------5---------------|
D|-----6-------------------|-----7-------------------|
A|-------------------------|-------------------------|
E|-0-----------------------|-0-----------------------|

   |---3---|   |---3---|     |---3---|   |---3---|
   Q   Q   Q   Q   Q   Q     Q   Q   Q   Q   Q   Q
e|-----------------0-------|-----------------0-------|
B|-------------7-------7---|-------------7-------0---|
G|---------6---------------|---------5---------------|
D|-----8-------------------|-----7-------------------|
A|-------------------------|-------------------------|
E|-0-----------------------|-0-----------------------|

                             v
   Q     H             Q     E.
e|-------------------------|-4-----------------------|
B|-------------------------|-4-----------------------|
G|-5-----------------------|-6-----------------------|
D|------<7>----------------|-6-----------------------|
A|-------------------------|-4-----------------------|
E|-------------------------|-------------------------|


----------------
Duration Legend
---------------
W - whole
H - half
Q - quarter
E - 8th
S - 16th
T - 32nd
X - 64th
. - note dotted
|-n-|  - n-tuplets


----------------
Tablature Legend
----------------
  h  - hammer on
  p  - pull off
  s  - legato slide
  - natural harmonic
  ^  - brush up
  v  - brush down
  x  - dead note
Добавлено: 26.11.2013
Другие материалы по этой песне:

Страница создана 16.06.2012
http://primanota.ru/sungha-jung/tears-in-heaven-chords.htm
Привет, Гость.
Предлагаем пройти революционный курс по гитаре.
Подарок от PrimaNota.Ru, забирай!