PrimaNota.ru - самый крупный в мире бесплатный архив песенных текстов, аккордов, табулатур и нот


Sungha Jung - Stars - таба, видео

Регистрация Запомнить меня
Войти через:  Facebook Google Twitter Vk Yandex Mail.ru

Sungha Jung - Stars - таба, видео

Печатать
Просмотров: 93
-------------------------------------------------------------------------------
                     Sungha Jung - Stars (Lead Guitar)
-------------------------------------------------------------------------------
Tabbed by: Angela
E-mail: Darkshadowdimension@gmail.com

Tuning: EADGBe

e|--12#-----------10p9-------------------------------------------------------|
B|--12#-----------------10~~---------------9/10~9h10-----------9-10-10~~-----|
G|---------------------------------------------------9~~---7/9---------------|
D|---------------------------------------------------------------------------|
A|---------------------------------------------------------------------------|
E|---------------------------------------------------------------------------|

e|---------------------------------------------------------------------------|
B|--9-10p9--------10/12-10~~9h10---------------------------------------------|
G|---------9p6~~-----------------9~~------9----------------------------------|
D|-----------------------------------9/11---11\9-7--6h7-7/9-7-9/11-9/11~~----|
A|---------------------------------------------------------------------------|
E|---------------------------------------------------------------------------|

e|---------------------------------------------------------------------------|
B|---------------------------------------------------------------------------|
G|-7-7-6-7/9-7-6---------------6-7p6--------------------------------6-7p6----|
D|---------------9-9~~--7-6-7--------9-7-6-7/9-7~~--6/7-------6-7-9----------|
A|------------------------------------------------------7-7h9~---------------|
E|---------------------------------------------------------------------------|

e|-------------------------4---5p4--------4-5-5p4----------------------------|
B|-----------------------5-5-------5~~3/5---------5-------------------5------|
G|---------------------6-----------------------------6\4-2-4/6-6~~-4/6-6\4-2~|
D|-9-7-6--7/9-7~~---/7-------------------------------------------------------|
A|---------------------------------------------------------------------------|
E|---------------------------------------------------------------------------|

e|-----------------------------------------10-10-9-10/12-10-9----------------|
B|------------------------------------------------------------12-12~~--------|
G|------------------6-7p6-----------6~~--------------------------------------|
D|-6-7-9-5/6~-6-7-9-------9-7-6-7/9------------------------------------------|
A|---------------------------------------------------------------------------|
E|---------------------------------------------------------------------------|

e|---------9-10-9------------------------------------------------------------|
B|-10-9-10--------12-10-9-10/12-10~~-9h10------------------------------------|
G|----------------------------------------9-9h11~9-7\6-7p6-------------------|
D|--------------------------------------------------------9-7-6-7/9-7~~7-6-5~|
A|---------------------------------------------------------------------------|
E|---------------------------------------------------------------------------|

e|-10~~10-9------------9-10-9--------12-------------9h10-10---10-9-----------|
B|----------12~~-10-12--------12~-10----11~-11-12~-----------------12~~------|
G|---------------------------------------------------------------------------|
D|---------------------------------------------------------------------------|
A|---------------------------------------------------------------------------|
E|---------------------------------------------------------------------------|

e|---9-10-10~-10-9--10/12-12~~-10~~10-9-----------9-10-9--------12-----------|
B|-12----------------------------------12~~-10-12--------12~-10----11~-11-12~|
G|---------------------------------------------------------------------------|
D|---------------------------------------------------------------------------|
A|---------------------------------------------------------------------------|
E|---------------------------------------------------------------------------|

e|-9h10-10---10-9------------------------------------------------------------|
B|----------------12-----10-10h12--10\9-10~~---------------------------------|
G|---------------------------------------------------------------------------|
D|---------------------------------------------------------------------------|
A|---------------------------------------------------------------------------|
E|---------------------------------------------------------------------------|

e|---------------------------------------------------------------------------|
B|----9/10~9h10--------9-10-10p9---------------------------------------------|
G|--------------9~~7/9-----------9-------------------------------------------|
D|-----------------------------------11\9-7-9/11--/11~~----------------------|
A|---------------------------------------------------------------------------|
E|---------------------------------------------------------------------------|

e|-----------------------------------------------------9-10-11-12--8/9--------|
B|-10/12-10~~---9-10-12-8p9-------------------------10-----------------12-12~~|
G|-------------------------9----9-------------9-11----------------------------|
D|---------------------------11---11\9-7-9/11---------------------------------|
A|----------------------------------------------------------------------------|
E|----------------------------------------------------------------------------|

e|------------------------------------------------------------------------9-10|
B|-10-9-12--10p9-7------------------------------------------------------10----|
G|-----------------9-7\6---6-7\6-4---------6-6h7~~6------------------/9-------|
D|-----------------------9---------7-6-6/7----------7/9/10\9~~7\6-7~----------|
A|----------------------------------------------------------------------------|
E|----------------------------------------------------------------------------|

e|-10-9----------------------------------10~~10-9------------9-10-9----------|
B|------12~~-10-9-10/12-10~~--10-9-8~~------------12~~-10-12--------12~------|
G|---------------------------------------------------------------------------|
D|---------------------------------------------------------------------------|
A|---------------------------------------------------------------------------|
E|---------------------------------------------------------------------------|

e|---12------------9h10-10---10-9---------9-10-10~-10-9--10/12-12~~-10~~10-9-|
B|10----11~-11-12~-----------------12~~12------------------------------------|
G|---------------------------------------------------------------------------|
D|---------------------------------------------------------------------------|
A|---------------------------------------------------------------------------|
E|---------------------------------------------------------------------------|

e|-----------9-10-9--------12------------12-10~~--10-9-----------------------|
B|12~~-10-12--------12~-10----11~-11-12~---------------12--10-10h12-10\9-10~~|
G|---------------------------------------------------------------------------|
D|---------------------------------------------------------------------------|
A|---------------------------------------------------------------------------|
E|---------------------------------------------------------------------------|

e|-10~~10-9------------------------------------------------------------------|
B|----------12---------------------------------------------------------------|
G|-11~~11-9------------------------------------------------------------------|
D|----------12---------------------------------------------------------------|
A|---------------------------------------------------------------------------|
E|---------------------------------------------------------------------------|

This is all I have so far, I will post the rest when I work it out 

************************************

| /   slide up
| \   slide down
| h   hammer-on
| p   pull-off
| ~   vibrato
| #   harmonic


************************************
Добавлено: 09.05.2016
Другие материалы по этой песне:
  • Аккорды и текст

Страница создана 09.05.2016
http://primanota.ru/sungha-jung/stars-chords.htm
Привет, Гость.
Предлагаем пройти революционный курс по гитаре.
Подарок от PrimaNota.Ru, забирай!