PrimaNota.ru - самый крупный в мире бесплатный архив песенных текстов, аккордов, табулатур и нот


Sungha Jung - One Of Us - таба, видео

Регистрация Запомнить меня
Войти через:  Facebook Google Twitter Vk Yandex Mail.ru

Sungha Jung - One Of Us - таба, видео

Печатать
Просмотров: 661
Авторы музыки: Eric Bazilian
Авторы текста: Eric Bazilian
Sungha Jung
One of Us
Tuning: Drop D (DADGBe)
Capo 2

|--------------------------|----------------------------|
|--------------------------|----------------------------|
|------0----0-------0----0-|------0---0---------0-2-0---| three times
|----2----2-------2----2---|----0---0------0-4--------4-|
|---------------3----------|----------------------------|
|--2-----------------------|--5----------0--------------|

|--------------------------|------------------|
|--------------------------|------------------|
|------0----0-------0----0-|------0---0-------|
|----2----2-------2----2---|----0---0-------x-|
|---------------3----------|----------------x-|
|--2-----------------------|--5-----------0-x-|

(play this riff 4 times)
|----------------------|-------------------|
|-0-----0-1------------|-----0-0--0--------|
|-0-----0-0------0---0-|-----0-0-----2-2-0-|
|----2---------2---2---|---0---------------|
|------------3---------|-------------------|
|-2--------------------|-5--------0--------|


|------------------|-------------------|
|--0-------0-------|-------0-----0-----|
|------0-------0---|-0---2-----------2-|
|----2---2---2---2-|---4-----------4---|
|--3-------3-------|-5--------5--------|
|------------------|-------------------|

|-----------------|----------------------|
|-0-------0-------|----------0-----------|
|-----0-------0---|-0----0-2-------2-0-2-|
|---2---2---2---2-|----4-----------------|
|-3-------3-------|-5-----------5--------|
|-----------------|----------------------|

|-----------------|---------------------0--2-|
|-0-------0-------|-0-----0-------0----------|
|-----0---0---0---|-2-----2-------2-----0--2-|
|---2---2---2---2-|-4-----4-----2-4----------|
|-3-------3-------|----0-----0-------0-------|
|-----------------|-0-------------0----------|


|-3----------------------|---------------------0-2-|
|-0----0------0---1/3----|-------------------------|
|-0----0----0-----0------|-------0----0--------0-2-|
|---2-----2--------------|----0----0--------0------|
|-------------3----------|-------------------------|
|-2--------------------0-|-5-------------0---------|

|-3----------------------|---------------------0-2-|
|-0-----0------0--1/3----|---------------------0-0-|
|-0-----0----0----0------|------0-----0--------0-2-|
|----2-----2-------------|---0-----0--------0------|
|--------------3---------|-------------------------|
|-2--------------------0-|-5-------------0---------|

|-3------------------------|---------------------|
|-0----0--------0-----1--3-|-------3-3-3----0----|
|-0----0------0-0-----0----|-------0-0-0-5-----2-|
|----2-----2-------2-------|----0----------------|
|---------------3----------|---------------------|
|-2------------------------|-5---------0---------|

|----------------------|---------------------|
|----------------------|---------------------|
|-----0----------0---0-|-------0----0--------|
|---2---2-0----2---2---|-----0----0----------|
|------------3---------|---------------------|
|-2--------------------|--5-------------0--x-|


|---------------------|------------------------|
|-------3-3-3----0----|------------------------|
|-------0-0-0-5-----2-|------0-----------0---0-|
|----0----------------|----2----2-0----2---2---|
|---------------------|--------------3---------|
|--5--------0---------|-2----------------------|

|--------------------|-0--------0--------------|
|------3-3-3----0----|-----0-------------0-----|
|------0-0-0-5-----0-|-----0----------0--0-----|
|---0----------------|---2---2-----2---------2-|
|--------------------|-3--------3--------------|
|-5--------0---------|-------------------------|

|----------------------------------|-0-----------0----------|
|-------------0-1-3-1-0------------|-------0-----------0----|
|--------0-2------------2-0--------|-------0-----------0----|
|----0-4---------------------4-2-0-|----2-----2-----2-----2-|
|----------------------------------|-3-----------3----------|
|-0--------------------------------|------------------------|

|-----------------5-7-5---------0-|---------0----------|
|-5-----7---------------8-7-5-----|-----0---------0----|
|-5-----7---------------------7---|-----0---------0----|
|-----------0---------------------|---2---2----2-----2-|
|----0----------------------------|-3-------3----------|
|-0-----------0-------------------|---------------2----|

|------------------------------------|---------0-------------0-----|
|-1--------3--------5--------7-------|-8--------------8------------|
|-2--------4--------5--------7-------|-0-------0------0------0-----|
|-------0--------0--------0--------0-|-----10-----10-----10-----10-|
|----0--------0--------0--------0----|-----------------------------|
|-0--------0--------0--------0-------|-10-------------10-----------|

|----------------------------|-------------------------------|
|-10------12--13-------------|-----------0-1-3-1-0-----------|
|----------------------------|-------0-2-----------2-0-------|
|-12------12--12-------------|---0-4-------------------4-2-0-|
|-----0----------------------|-------------------------------|
|-0---------------0--0--0--0-|-0-----------------------------|

|-------------------------|---------------------------|
|-0-----0-1---------------|--------0--0--0------------|
|-0-----0-0--------0----0-|--------0--0-------2--2--0-| play thrice
|----2----------2----2----|-----0---------------------|
|------------3------------|---------------------------|
|-2-----------------------|--5-----------0------------|

|--------------------------|-----------------------|
|-0--0-----1---------------|----0-0-0--0-----------|
|-0--0-----0--------0----0-|----0-0-0------2--2--0-|
|-------2--------2----2----|-----------------------|
|-------------3------------|-----------------------|
|-2------------------------|-5---------0-----------|

|------------------------|--------------------------|
|-0-----------0----------|----------0-------0-------|
|-------0-----------0----|-0-----2----------------2-|
|----2-----2-----2-----2-|----4----------------4----|
|-3-----------3----------|-5------------5-----------|
|------------------------|--------------------------|

|------------------------|----------------------------|
|-0-----------0----------|-------------0--------------|
|-------0-----------0----|-0-----0--2---------2--0--2-|
|----2-----2-----2-----2-|----4-----------------------|
|-3-----------3----------|-5---------------5----------|
|------------------------|----------------------------|

|-------------------------|------------------------0--2-|
|--0-----------0----------|-0-----0--------0------------|
|--------0-----0-----0----|-2-----2--------2-------0--2-|
|-----2-----2-----2-----2-|-4-----4-----2--4------------|
|--3-----------3----------|----0-----0--------0---------|
|-------------------------|-0--------------0------------|


|-3--------------------------|----------------------0--2-|
|-0-----0--------0--1--3-----|---------------------------|
|-0-----0-----0-----0--------|--------0----0--------0--2-|
|----2-----2-----------------|-----0----0--------0-------|
|----------------3-----------|---------------------------|
|-2------------------------0-|--5-------------0----------|

|-3---------------------------|---------------------0--2-|
|-0-----0--------0--1--3------|---------------------0--0-|
|-0-----0-----0-----0---------|-------0----0--------0--2-|
|----2-----2------------------|-----0----0-------0-------|
|----------------3------------|--------------------------|
|-2-------------------------0-|--5------------0----------|

|--3--------------------------|------------------------|
|--0-----0--------0-----1---3-|-------3--3--3-----0----|
|--0-----0-----0--0-----0-----|-------0--0--0--5-----2-|
|-----2-----2--------2--------|----0-------------------|
|-----------------3-----------|------------------------|
|--2--------------------------|-5-----------0----------|

|-----------------------------|------------------------|
|-----------------------------|-------3--3--3-----0----|
|--------0-------------0----0-|-------0--0--0--5-----2-|
|-----2-----2-0-----2----2----|----0-------------------|
|----------------3------------|------------------------|
|--2--------------------------|-5-----------0----------|


|-----------------------------|--0--------------0-------------|
|-----------------------------|--------0--------------0-------|
|-------0--------------0----0-|--------0-----0--------0-----0-|
|----2-----2--0-----2----2----|-----2-----2--------2-----2----|
|----------------3------------|--3--------------3-------------|
|-2---------------------------|-------------------------------|


|---------------------------|----------0~~--|
|----------------0----------|-------3-------|
|----------0--2-----2--0----|---------------|
|-----0-4-----------------0-|----2----------|
|---------------------------|---------------|
|--0------------------------|-2-------------|
Добавлено: 02.09.2013
Другие материалы по этой песне:

Страница создана 10.07.2012
http://primanota.ru/sungha-jung/one-of-us-chords.htm
Привет, Гость.
Предлагаем пройти революционный курс по гитаре.
Подарок от PrimaNota.Ru, забирай!