PrimaNota.ru - самый крупный в мире бесплатный архив песенных текстов, аккордов, табулатур и нот


Sungha Jung - November Rain - таба, видео

Регистрация Запомнить меня
Войти через:  Facebook Google Twitter Vk Yandex Mail.ru

Sungha Jung - November Rain - таба, видео

Печатать
Просмотров: 193

Title: November Rain

Artist: Sungha Jung

Arranged by: Sungha Jung

Tabbed by: Ryan R. Gonzales

Location: Rosario, Batangas - Philippines

Band: http://www.youtube.com/watch?v=dY0_cK4tskI

Tuning: D# A# F# C# F# B



      00:13
      ^              ^              ^           ^
      E     E  E  E  E  E  E  E     E  E  E  E  E  E  E  E
D#||--5--------------5--7--8-----|--5-----------5--7--8-----|
A#||--5--------5-----5-----------|--5-----5-----5-----------|
F#||--5-----5--------5--------0--|--5--5--------5--------0--|
C#||-----------------------------|--------------------------|
F#||-----------------------------|--9--------9--------------|
B ||--5-----------5--------------|--------------------------|


  ^           ^              ^           ^
  E  E  E  E  E  E  E  E     E  E  E  E  E  E  E  E
--5-----------------------|--------------------------|
--5-----5-----8--6--5-----|--5-----------3-----------|
--5--5--------5-----------|--5-----5-----5-----5-----|
--0--------0-----------0--|--5--5--------5-----5--0--|
--------------------------|--------------------------|
--------------------------|--0--------0-----0--------|


  ^                           ^        ^
  E  E  E  S S E  E  E  E     E  E  E  E  E  E  E  E
--5--------5-7-8--7--5-----|--5--------5--------------|
--5---------------5--------|--5-----5--5-----8--6-----|
--5-----5---------------0--|--5--5--------5-----------|
-----5---------------------|--0--------------------0--|
---------------------------|--------------------------|
--5------------------------|--------------------------|


              ^     ^        ^           ^
  E  E  E  E  E  E  E  E     E  E  E  E  E  E  E  E
--------------------------|--------------------------|
--5-----------6-----3-----|--5-----------3-----------|
--5-----5-----5-----5-----|--5-----5-----5-----5-----|
-----5--------5--5--------|--5--5--------------5--0--|
-----------------------0--|--------------------------|
--0--------0--------------|--0--------0-----0--------|


                              ^
  E  E  E  S S E  E  E  E     E  E  E  E  E  E  E  E
--5--------5-7-8--7--5--7--|--8-----7--5--------------|
--5-----5---------5--------|--5--5--------8--6--5-----|
--5--5---------------------|--5--------------------0--|
---------------------------|--------------------------|
---------------------------|--------------------------|
--5------------------------|--------------------------|


  ^                                       ^
  E  E  E  S S E  E  E  E     E  E  E  E  E  E  E  E
--5------------------------|--------------------------|
--5--------5-6-8--6--5-----|--5-----------6-----3-----|
--5--5--5---------5--5-----|--5-----5-----5-----5-----|
--0---------------------0--|-----5--------5--5-----5--|
---------------------------|--------------------------|
---------------------------|--0--------0--------------|


    ^           ^              ^
    E  E  E  E  E  E  E  E     H        E  E  S S E
----------------------------|--0---------------------|
--3g5-----------6-----3-----|--5---------------------|
----5-----5-----5-----5-----|--5---------------------|
----5--5--------5--5-----5--|--5---------------------|
----------------------------|--0---------------------|
----0--------0--------------|--0---------------------|


  00:57
  ^
  E     E   E   E  E   E   E   S S    E   E   E   S S E   E   E   S S
--5--------------------------------|----------------------------------|
--5--------(5)--6--6p--5--(5)--8---|--8p--5--(5)--6---6p--5--(5)--6---|
--5--------(5)--5--5---L--(5)------|--5------(5)--5---5------(5)--0---|
--5--------(5)-------------x-------|--0-------x---0---0-------x-------|
--5--------------------------------|----------------------------------|
--5-----5---x------5---------------|----------------------------------|


                ^                ^             ^
  E  E   E   E  E  E  E  E       E  E   E   E  E  E  E   S   S
----------------------------|-----------------------------------|
--5-----(5)-----6-----3-----|--3g5-------------3----------------|
--5-----(5)-----5-----5-----|----5-----(5)-----5-----5----------|
--5--5----------5-----5-----|----5-----(5)-----5-----5----------|
----------------------------|---------------------------(0)-----|
--0------x---0-----0--x--0--|----0--0---x---0-----0--x------(0)-|


  ^
  E  E   E   E  E   E   E   S S    E   E   E   S S E   E   E   S S
--5-----------------------------|----------------------------------|
--5-----(5)--6--6p--5--(5)--8---|--8p--5--(5)--6---6p--5--(5)--6---|
--5-----(5)--5--5---L--(5)------|--5------(5)--5---5------(5)------|
--5-----(5)-------------x-------|--0-------x---0---0-------x-------|
--5-----------------------------|----------------------------------|
--5--5---x------5---------------|----------------------------------|


                ^                ^             ^
  E  E   E   E  E  E  E  E       E  E   E   E  E  E  E   E
----------------------------|--------------------------------|
--5-----(5)-----6-----3-----|--3g5-------------3-------------|
--5-----(5)-----5-----5-----|----5-----(5)-----5-----5-------|
--5--5----------5-----5-----|----5-----(5)-----5-----5--(0)--|
----------------------------|---------------------------(0)--|
--0------x---0-----0--x--0--|----0--0---x---0-----0--x-------|


  01:22
  ^
  E     E  S S E  S S E  S S S S    E  E  S S S S S  S E  E  S S
--5------------------------------|-------------------------------|
--5------------------------5-----|---------------------------5---|
--5----------5----7-5----7-----5-|----------5-----7p-5----7----5-|
--5--------7-----------------0---|--0--7--x---x-0------0--0----5-|
--5------------------------------|-------------------------------|
--5-----5--5---5--5---5--5-------|-------------------------------|


                 ^                                       ^            ^ v
  E  S  S  E  E  S  S S  S  S S E     S S  E    E    E   E   E    E   S S
-----------------------------------|-------3----3-------------------------|
--------------5--5s-6---(6)-----3--|------(0)---0----5---6---5----3-------|
--------5-----5--5--L---(5)-----5--|----5------(5)--(5)--5--(5)--(5)--0---|
-----5-(5)-------5--L-5-----x-5----|---------------------5-------(5)--0-0-|
-----------x-----0-----------------|------------x-----------------x-----0-|
--0--------------0-----------------|--0------------------0--------------0-|


   ^           ^
   Q     E  E  S S E  E  S S    E  E  S S S S S  S E  E  S S
--(5)----------5-------------|-------------------------------|
--(5)----------5-8----6--5---|--5-------5-----6p-5-------5---|
---5------------------5--5---|-----7----5-------------7----5-|
---5-------------------------|--0-----x---x-0------0--0------|
---5-------------------------|-------------------------------|
---5-----x--5------5--5------|-------------------------------|


                 ^                                       ^            ^ v
  E  S  S  E  E  S  S S  S  S S E     S S  E    E    E   E   E    E   S S
-----------------------------------|-------3----3-------------------------|
--------------5--5s-6---(6)-----3--|------(0)---0----5---6---5----3-------|
--------5-----5--5--L---(5)-----5--|----5------(5)--(5)--5--(5)--(5)--0---|
-----5-(5)-------5--L-5-----x-5----|---------------------5-------(5)--0-0-|
-----------x-----0-----------------|------------x-----------------x-----0-|
--0--------------0-----------------|--0------------------0--------------0-|


  01:48
  ^
  Q     E  E  S  S S S S S S S    E  E  S S S S S  S S S E  S S
--1-----------1p-0---0-----3---|----------------1p-0--------0---|
--3-----------3--------------3-|-----3----3-x------------3----1-|
--2----------------------2-----|-----0-------------------0------|
--0-----x--0--0----0-----------|--------------------------------|
-----------------------x-------|--0-----x-----0------x-0--------|
-------------------------------|------------x-------------------|


               ^
  E  S S E  E  E  S S S S E     S S E   E   E   E   E   E   E
------------0--1----------0--|------3---3---0---1---0----------|
------------0--3----3-----1--|------1---1---0---0---0---3---1--|
-------0-------0----0--------|----0-----0-------0-------0---0--|
-----2---x-----2--2---x-2----|---------(2)-----(2)-----(2)-----|
-----------------------------|---------------------------------|
--0--------------------------|--0-------x---------------x------|


  ^                                               ^
  Q     E   E  S  S S S S S S S    E  E  S S S S  S  S S S E  S S
--1-----1------1p-0---0-----3---|-----------------1p-0--------0---|
--3-----3------3--------------3-|-----3----3------3--L-L---3----1-|
--2----(2)----------------2-----|-----0-----------0--L-L---0------|
--0-----x---0--0----0-----------|----------------(0)-L-L----------|
------------------------x-------|--0-----x-----0-------x-0--------|
--------------------------------|------------x--------------------|


               ^
  E  S S E  E  E  S S S S E     S S E   E   E   E   E   E   E
------------0--1----------0--|------3---3---0---1---0----------|
------------0--3----3-----1--|------1---1---0---0---0---3---1--|
-------0-------0----0--------|----0-----0-------0-------0---0--|
-----2---x-----2--2---x-2----|---------(2)-----(2)-----(2)-----|
-----------------------------|---------------------------------|
--0--------------------------|--0-------x---------------x------|


  ^                                             ^
  Q    E  E  S  S S S S S S S    E  E  S S S S  S  S S S E  S S
--1----------1p-0---0-----3---|-----------------1p-0--------0---|
--3----------3--------------3-|-----3----3------3--L-L---3----1-|
--2---------------------2-----|-----0-----------0--L-L---0------|
--0----x--0--0----0-----------|----------------(0)-L-L----------|
----------------------x-------|--0-----x-----0-------x-0--------|
------------------------------|------------x--------------------|


               ^
  E  S S E  E  E  S S S S E     S S E   E   E   E   E   E   E
------------0--1----------0--|------3---3---0---1---0----------|
------------0--3----3-----1--|------1---1---0---0---0---3---1--|
-------0-------0----0--------|----0-----0-------0-------0---0--|
-----2---x-----2--2---x-2----|---------(2)-----(2)-----(2)-----|
-----------------------------|---------------------------------|
--0--------------------------|--0-------x---------------x------|


  02:24
  S     S S S  E   S S S S S S  E   S S    S S S S  E   S S S S S S  E   S S
--5-------5----5---5---5---5----5---5---|--5---5----5---5---5---5----5-----5-|
--------8---8--5---------8---8--5-------|----8---8--5---------8---8--5-------|
--------------(5)--------------(5)------|----------(5)--------------(5)------|
--------------------------------------0-|--0--------x-----0-0--------x---x---|
--------------------------------x-------|------------------------------------|
--5------------x-----5-5----------------|------------------------------------|


          ^  v    v   ^                                 v  ^     ^  v ^  v
  S S E   S  S S  S   E   S S S S S S    S  S  E  E  S  S  Q     S  S S  S
------3--(3)-3------------------------|--------------------0----(0)---------|
------5---5--5----------------6-6---6-|-----5-----5--------5----(5)-5-------|
----------5--5---(5)--------5-5-5---5-|-----5-----5----(5)-5-----5--5-5-(5)-|
----5------------(5)-(5)--5-----------|----(5)----5----(5)-5-----5--5-5-----|
-----------------(0)--0---------------|----------------(0)-0----------0-----|
--0-------x----0------0-------0---x---|--0-----x-----0----------------------|


  S S S S  E   S S S S S S  E   S S    S S S S  E   S S S S S S  E   S S
--5---5----5---5---5---5----5---5---|--5---5----5---5---5---5----5-----5-|
----8---8--5---------8---8--5-------|----8---8--5---------8---8--5-------|
----------(5)--------------(5)------|----------(5)--------------(5)------|
----------------------------------0-|--0--------x-----0-0--------x---x---|
----------------------------x-------|------------------------------------|
--5--------x-----5-5----------------|------------------------------------|


          ^  v    v   ^                                 v  ^   v  v ^ v
  S S E   S  S S  S   E   S S S S S S    S  S  E  E  S  S  E.  E  S S S
------3--(3)-3------------------------|--------------------0---0--0-----|
------5---5--5----------------6-6---6-|-----5-----5--------5---5--5-5---|
----------5--5---(5)--------5-5-5---5-|-----5-----5----(5)-5---5--5-5-5-|
----5------------(5)-(5)--5-----------|----(5)----5----(5)-5---5--5-5-5-|
-----------------(0)--0---------------|----------------(0)-0---0--0-0-0-|
--0-------x----0------0-------0---x---|--0-----x-----0------------------|


  02:49
  ^                                                ^
  Q      E   E  S  S S S S S S S    E  E  S S S S  S  S S S E  S S
--1------1------1p-0---0-----3---|-----------------1p-0--------0---|
--3------3------3--------------3-|-----3----3------3--L-L---3----1-|
--2-----(2)----------------2-----|-----0-----------0--L-L---0------|
--0------x---0--0----0-----------|----------------(0)-L-L----------|
-------------------------x-------|--0-----x-----0-------x-0--------|
---------------------------------|------------x--------------------|


               ^
  E  S S E  E  E  S S S S E     S S E   E   E   E   E   E   E
------------0--1----------0--|------3---3---0---1---0----------|
------------0--3----3-----1--|------1---1---0---0---0---3---1--|
-------0-------0----0--------|----0-----0-------0-------0---0--|
-----2---x-----2--2---x-2----|---------(2)-----(2)-----(2)-----|
-----------------------------|---------------------------------|
--0--------------------------|--0-------x---------------x------|


  ^                                               ^
  Q     E   E  S  S S S S S S S    E  E  S S S S  S  S S S E  S S
--1-----1------1p-0---0-----3---|-----------------1p-0--------0---|
--3-----3------3--------------3-|-----3----3------3--L-L---3----1-|
--2----(2)----------------2-----|-----0-----------0--L-L---0------|
--0-----x---0--0----0-----------|----------------(0)-L-L----------|
------------------------x-------|--0-----x-----0-------x-0--------|
--------------------------------|------------x--------------------|


               ^
  E  S S E  E  E  S S S S E     S S E   E   E   E   E   E   S S
------------0--1----------0--|------3---3---0---1---0---------1-|
------------0--3----3-----1--|------1---1---0---0---1---3---1---|
-------0-------0----0--------|----0-----0-------0-------0---0---|
-----2---x-----2--2---x-2----|---------(2)-----(2)-----(2)------|
-----------------------------|----------------------------------|
--0--------------------------|--0-------x---------------x-------|


  03:14
                                              ^
  E     E  E  Q    E  E  S S    E  E  E  Q    E  E  S S
--------0----------------0---|------------------------1-|
-----------1----------3----3-|----------------1--3--1---|
-----------2-------2--2------|--------0-------0---------|
--0-----------0--------------|-----0----------0---------|
-----------------------------|--0--------0--------------|
-----------------------------|--------------------------|


                                             ^
  E  E  E  Q    E  E  S S     S S E  E  Q    E  S S S  S
-----0---------------------|-----------------3--3-3-1p-0-|
--------1------------------|-----------------0-----------|
--------2----------2--2-2h-|----0-0----------0-----------|
--0--------0----0----------|-----------------0-----------|
---------------------------|--0------x--0----------------|
---------------------------|-----------------------------|


                                             ^
  E  E  E  Q    E  E  S S    E   E   E  Q    E  S S S  S
--1--0----------------0-0-|------------------3--3-3-1p-0-|
--------1----------3------|------3-----------0-----------|
-----2--2-------2--2------|-----(0)--0-------0-----------|
--0--------0--------------|------------------0-----------|
--------------------------|--0----------0----------------|
--------------------------|------------------------------|


                                     03:36
                                     ^     ^ v ^   ^  v ^   ^  v
  E  E  E  Q    E  E  S S     S S E  E     S S E   S  S E   S  S
--1--0---------------------|-------------------0--(0)-0-0--(0)-0-|
--------1------------------|---------0-------0-0---0--0-0---0--0-|
--------2----------2--2-2h-|----0-0--0-----0-0-0---0--0-0---0--0-|
--0--------0----0----------|---------0-----0-0-0---0--0-0---0--0-|
---------------------------|--0-------------------------0---0--0-|
---------------------------|-------------------------------------|


  ^    ^  v   ^   v  ^    ^  v   ^   v                ^  ^ v   v  ^   ^  v
  Q    S  S   S   S  Q    S  S   S   S     S S S S E  E  S E   S  E   S  S
--0----0-(0)-(0)-(0)-1----1-(0)-(0)-(0)-|------3-0----0--0-0--(0)-0--(0)---|
--0----0-(0)-(0)--0--1----1--1--(1)--1--|--------1----1--1-1--(1)-1---1--1-|
--0----0--0---0---0--2----2--2---2---0--|----0--------0--0-0---0--0---0--0-|
--2----2--2---2---2--3----3--3---3---2--|-------------2--2-2---2--2---2--2-|
--4-------------------------------------|-------------------------0--------|
--4------------------2------------------|--0-------0--0--------------------|


  ^    ^  v   ^   v  ^    ^  v                 ^  ^ v ^   ^  v ^   ^  v
  Q    S  S   S   S  Q    S  S  S S     S S E  E  S S E   S  S E   S  S
--0----0-(0)-(0)-(0)-1----1-(0)------|----------------0--(0)-0-0--(0)-0-|
--0----0-(0)-(0)--0--1----1--1-------|---------0------0---0--0-0---0--0-|
--0----0--0---0---0--2----2--2----2h-|--0-0-0--0--0-0-0---0--0-0---0--0-|
--2----2--2---2---2--3----3--3-------|---------0--0-0-0---0--0-0---0--0-|
--4----------------------------------|--0----------------------0---0--0-|
--4------------------2----------x----|----------------------------------|


  ^    ^  v   ^   v  ^    ^  v   ^   v                ^ v    v  ^     NH  ^  v
  Q    S  S   S   S  Q    S  S   S   S     S S S S E  S S S  S  E     E   S  S
--0----0-(0)-(0)-(0)-1----1-(0)-(0)-(0)-|------3-0----0-----(0)-L--------(0)---|
--0----0-(0)-(0)--0--1----1--1--(1)--1--|--------1----1-1-x--0h-1----13---1--1-|
--0----0--0---0---0--2----2--2---2---0--|----0--------0-0----0--L--<>12---0--0-|
--2----2--2---2---2--3----3--3---3---2--|-------------2-2-x--0h-2----14---2--2-|
--4-------------------------------------|--------------------0--L--<>12--------|
--4------------------2------------------|--0-------0--0---x--------------------|


  ^    ^  v   ^   v  ^    ^  v                 ^  ^ v ^  ^ v ^  ^ v
  Q    S  S   S   S  Q    S  S  S S     S S E  E  S S E  S S E  S S
--0----0-(0)-(0)-(0)-1----1-(0)------|---------0--0-0-1--1-1-3--3-3-|
--0----0-(0)-(0)--0--1----1--1-------|---------0--0-0-0--0-0-0--0-0-|
--0----0--0---0---0--2----2--2----2h-|--0-0-0--0--0-0-0--0-0-0--0-0-|
--2----2--2---2---2--3----3--3-------|---------0--0-0-0--0-0-0--0-0-|
--4----------------------------------|--0------0------0------0------|
--4------------------2----------x----|------------------------------|


  ^      ^
  E  S S S S S  S E   S S S S S S
--0----0-----1p-0-----------------|
--0------0--------3~--------------|
--0------0-0------------------0---|
--0------0--------------0-L-----0-|
--0--0---x--------0---0---x-0-----|
----------------------------------|


   04:06 [rock]
   E            E  S  S  S  S  E  S  S E  S  S
----------------------------------8------------|
--10--------------------10p-8-10----10----8s-6-|
-----------------------------------------------|
---------------------------------------x-------|
--10-----------10--x-10-------10---------------|
-----------------------------------------------|


     S  S   E  S S  S  S  E  S  S S S E     E  E  S S E  E  S S  S S  E
-----------------------------8-----------|------------8------------------|
--8g10p-8h-10------10p-8-10----10---8-6--|--5-----------------5h-6-5h-6--|
-----------------------------------------|-------------------------------|
-----0---------x-0--------0--------------|-------------------------------|
----------------------------------x------|-------------------------------|
-----------------------------------------|--0--0--x-0----x--0------------|


  E  E  S S S  S S  S S S  S S E     S   E.  S  S  S  S  E  S  S E  S  S
----------------------------------|-------------------------8------------|
--5-------------------8-----------|--7s-10--------10p-8-10----10----8s-6-|
------------7p-5-7s-9---9s-7---5--|--------------------------------------|
----------------------------------|------------------------------x-------|
----------------------------------|--7s-10---x-10-------10---------------|
--0--0--x-0------0---------x-0----|--------------------------------------|


     S  S   E  S S  S  S  E  S  S S  S  E      S   S E  E  Q    E  S   S  S  S
-----------------------------8-10-------8--|--10s-12-L-------------8h-10p-8----|
--8g10p-8h-10------10p-8-10----------------|--------------------------------10-|
------------------------------------(0)----|-----------------------------------|
-----0---------x-0--------0----------------|-----------------------------------|
----------------------------------x--------|-----------------------------------|
-------------------------------------------|---0---L-0--x--0----0--------------|


  E  E  E  E   S   S  S  S   S  S  S   S
--8-----------13p-12----13p-12----13s-15-|
---------------------13--------13--------|
-----------------------------------------|
-----------------------------------------|
-----------------------------------------|
--0--0--x--0---0-------------------------|


   Q    E  E.  S  S  S  E   S   T   T     E  S S S S  S  S  E   E  S  S   S  S
--13----------------12-13--12h-13p-12-|-----------------12-13--15----13p-12-13-|
-----------------15-------------------|--15----------15------------------------|
--------------------------------------|--------0-L-----------------------------|
---0----x--0---0--------0-------------|----------------------------------------|
--------------------------------------|---0--0---x-0--------0------x-----------|
--------------------------------------|----------------------------------------|


   E  E  S S  E  E  E  S S  S  S
--12---------20------------19-19-|
---------------------------------|
---------------------------------|
---------------------------------|
---------------------------------|
---0--0--x-0-----x--0--x-0-------|


   S   S  S  S  S   S  S  S  S   S  S  S  S   T   T  S  S
--19s-17-17-17-17s-15-15-15-15s-13-13-13-12h-13p-12----12-|
----------------------------------------------------15----|
----------------------------------------------------------|
----------------------------------------------------------|
----------------------------------------------------------|
---0------------0------------0------------0---------------|


   Q    E  E  S S  S   S  S   T   T  S  S
--13--------------12h-13-12h-13p-12-12----|
---------------------------------------13-|
------------------------------------------|
---0----x--0--x-0---------0---------------|
------------------------------------------|
------------------------------------------|


   S   S  T   T   E    S  S  S  S  S  S  S  S  S  S   T  T
-----------------------------------------------------------|
--15s-17-15s-17s-15p--13-13-13-12----10----10--------------|
----------------------------------12----10----10-10h-12-10-|
-----------------------------------------------------------|
---0-------------------------------------------------------|
-----------------------------------------------------------|


  E  E  S   S  S  T   T E  S S S   S  S  T   T
-----------------------------------------------|
-----------------10s-13-L---------------10s-13-|
--9-----9h-10p-9---------------9h-10p-9--------|
-----------------------------------------------|
-----------------------------------------------|
--0--0--x------0--------0--x-0--------0--------|


                         [/rock]              04:54
  E  S S S   S  S  T   T E       E  E  S S    E     E  E  Q    E  E  S S
------------------10s-12-L----------0----1-|--------0----------------0---|
--L------------------------------3-----3---|-----------1----------3----3-|
---------9h-10p-9--------------------------|-----------2-------2--2------|
-------------------------------------------|--0-----------0--------------|
-------------------------------------------|-----------------------------|
--0--x-0--------0--------0-----------------|-----------------------------|


                ^
  E  E  E  Q    E  E  S S    E  E  E  Q    E  E  S S
------------------------1-|-----0---------------------|
----------------1--3--1---|--------1------------------|
--------0-------0---------|--------2----------2--2-2h-|
-----0----------0---------|--0--------0----0----------|
--0--------0--------------|---------------------------|
--------------------------|---------------------------|


                 ^
  S S E  E  Q    E  S S S  S    E  E  E  Q    E  E  S S
-----------------3--3-3-1p-0-|--1--0----------------0-0-|
-----------------0-----------|--------1----------3------|
----0-0----------0-----------|-----2--2-------2--2------|
-----------------0-----------|--0--------0--------------|
--0------x--0----------------|--------------------------|
-----------------------------|--------------------------|


                ^
  E  E  E  Q    E  S S S  S    E  E  E  Q    E  E  S S
----------------3--3-3-1p-0-|--1--0---------------------|
-----3----------0-----------|--------1------------------|
-----0--x-------0-----------|--------2----------2--2-2h-|
----------------0-----------|--0--------0----0----------|
--0--------0----------------|---------------------------|
----------------------------|---------------------------|


         ^   ^   v  ^   ^   v  ^   ^   v
  S S E  E   S   S  E   S   S  E   S   S
---------0----------1----------3----------|
---------0------(0)-0------(0)-0------(0)-|
----0-0--0--(0)-(0)-0--(0)-(0)-0--(0)-(0)-|
---------0--(0)-(0)-0--(0)-(0)-5--(5)-(5)-|
--0---------------------------------------|
------------------------------------------|


  ^   ^   v  ^   ^   v   ^    ^    v   ^    ^    v
  E   S   S  E   S   S   E    S    S   E    S    S
--5----------7-----------8------------10------------|
--0------(0)-0------(0)--0--------(0)--0--------(0)-|
--7--(7)-(7)-9--(9)-(9)-10--(10)-(10)-12--(12)-(12)-|
--7--(7)-(7)-9--(9)-(9)-10--(10)-(10)-12--(12)-(12)-|
--0----------0-----------0-------------0------------|
----------------------------------------------------|


   05:22 [rock]
   ^                        ^
   Q           E  E  E  E   S   S E      E  S S E  E  E   E  S  S   E
--13-----------------------15s-17-L--|--15---------------17----15s-13--|
--15-----------------------15--------|--------------------0-----0------|
--14-----------------------14--------|---------------------------------|
---0--------------0--x--0---0--------|--------0------------------------|
---------------x------------------x--|---0--0---x--0--x------x---------|
-------------------------------------|---------------------------------|


                        ^   v   ^   v                   v  ^   v
   E  E  S S  E  E  E   S   S   S   S     E  E  S S  S  S  E   S  S E  E
--12---------20--------20--20----------|-----8----7h-8------------1----0--|
-----------------------(0)-(0)-----(0)-|-----0----0----(0)----------------|
-----------------------(0)-(0)-(0)-(0)-|---------------(0)----(0)---------|
-------------------------------(0)-(0)-|---------------(0)----(0)---------|
---------------------------------------|-------------------0--------------|
---0--0--x-0-----x--0------------------|--0-----x----------0--------x-----|


  ^
  Q     E   Q    E  S S S S    S  S  S S S S  S S S S  S S S S  E
--1-----1--------3----5-----|--3p-1p-0---0-------------------------|
--3----(3)-------3--------0-|----------3---1p-0---0----------------|
--2----(2)------------------|-------------------2---2p-0---0-------|
--0-----x---0---------0-----|--0-------------------------2---2p-0--|
------------------------x---|--------------------------------------|
--------------------x-------|--------------------------------------|


                                                                       [/rock]
  S S S S S S S S S S S S S S S S    S  S E  S T  T  S S S S S S S S S S
--3---------------3---------------|--3s-5-3--1-3p-1p-0---0---------------------|
----1---1-------1---1---1-------1-|--------------------3---1-0---0-------------|
--------------2---------------2---|----------------------------2---2-0---------|
----------------------------------|------------------------------------0-------|
----------------------------------|--------------------------------------------|
--0---x---x-0-----0---x---x-0-----|--0-----------------------------------------|


  05:46
  ^                                                ^
  Q      E   E  S  S S S S S S S    E  E  S S S S  S  S S S E  S S
--1------1------1p-0---0-----3---|-----------------1p-0--------0---|
--3------3------3--------------3-|-----3----3------3--L-L---3----1-|
--2-----(2)----------------2-----|-----0-----------0--L-L---0------|
--0------x---0--0----0-----------|----------------(0)-L-L----------|
-------------------------x-------|--0-----x-----0-------x-0--------|
---------------------------------|------------x--------------------|


               ^
  E  S S E  E  E  S S S S E     S S E   E   E   E   E   E   E
------------0--1----------0--|------3---3---0---1---0----------|
------------0--3----3-----1--|------1---1---0---0---0---3---1--|
-------0-------0----0--------|----0-----0-------0-------0---0--|
-----2---x-----2--2---x-2----|---------(2)-----(2)-----(2)-----|
-----------------------------|---------------------------------|
--0--------------------------|--0-------x---------------x------|


  ^                                             ^
  Q    E  E  S  S S S S S S S    E  E  S S S S  S  S S S E  S S
--1----------1p-0---0-----3---|-----------------1p-0--------0---|
--3----------3--------------3-|-----3----3------3--L-L---3----1-|
--2---------------------2-----|-----0-----------0--L-L---0------|
--0----x--0--0----0-----------|----------------(0)-L-L----------|
----------------------x-------|--0-----x-----0-------x-0--------|
------------------------------|------------x--------------------|


               ^
  E  S S E  E  E  S S S S E     S S E   E   E   E   E   E   E
------------0--1----------0--|------3---3---0---1---0----------|
------------0--3----3-----1--|------1---1---0---0---0---3---1--|
-------0-------0----0--------|----0-----0-------0-------0---0--|
-----2---x-----2--2---x-2----|---------(2)-----(2)-----(2)-----|
-----------------------------|---------------------------------|
--0--------------------------|--0-------x---------------x------|


  ^                                          ^
  Q    E  E  S S E  E  S S    E  E  S S S S  S  S S S E  S S
--1----------5-3----1--0-0-|-----------------1p-0--------0---|
--3------------------------|-----3----3------3--L-L---3----1-|
--2--------------2---------|-----0----0------0--L-L---0------|
--0----x--0--0------0------|----------------(0)-L-L----------|
---------------------------|--0-----x---x-0-------x-0--------|
---------------------------|---------------------------------|


               ^
  E  S S E  E  E  S S S S E     S S E   E   E   E   E   E   E
------------0--1----------0--|------3---3---0---1---0----------|
------------0--3----3-----1--|------1---1---0---0---0---3---1--|
-------0-------0----0--------|----0-----0-------0-------0---0--|
-----2---x-----2--2---x-2----|---------(2)-----(2)-----(2)-----|
-----------------------------|---------------------------------|
--0--------------------------|--0-------x---------------x------|


  ^                                             ^
  Q    E  E  S  S S S S S S S    E  E  S S S S  S  S S S E  S S
--1----------1p-0---0-----3---|-----------------1p-0--------0---|
--3----------3--------------3-|-----3----3------3--L-L---3----1-|
--2---------------------2-----|-----0-----------0--L-L---0------|
--0----x--0--0----0-----------|----------------(0)-L-L----------|
----------------------x-------|--0-----x-----0-------x-0--------|
------------------------------|------------x--------------------|


  06:28
  ^     ^  ^ v ^    ^  ^ v    ^    ^  ^ v ^  v  ^  ^ v
  Q     E  S S Q    E  S S    Q    E  S S E  E  E  S S
--0-----0--0---0----0--0---|--0----0--0---0--0--0------|
--1-----1--1-1-3----3--3-3-|--1----1--1-1-0--0--0--0---|
--0-----0--0-0-4----4--4-4-|--2----2--2-2-0--0--0--0-0-|
--2-----2--2-2-0----0--0-0-|--0----0--0-0-0--0--0--0-0-|
--0-----0--0-0-4----4--4-4-|--2----2--2-2-0--0--0--0-0-|
---------------------------|---------------------------|


  ^    ^   v  v ^  ^  ^ v    ^    ^  ^ v  v       NH  ^   v
  Q    E.  E  S E  E  S S    Q    E  S E  S  E    E   S   S
--5----5---5--5-5--5------|--7----7--7-7--7------------------|
--6----6---6--6-6--6--6---|--8----8--8-8--8-------8------(0)-|
--5----5---5--5-5--5--5-5-|--7----7--7-7--7-----<>7--(0)-(0)-|
--7----7---7--7-7--7--7-7-|--9----9--9-9--9-------9--(0)-(0)-|
--5----5---5--5-5--5--5-5-|--7----7--7-7--0--7--<>7--(0)-(0)-|
--5----5---5--5-5--5--5-5-|--7----7--7-7--0h-7---------------|


  06:28
  ^     ^  ^ v ^    ^  ^ v    ^    ^  ^ v ^  v  ^  ^ v
  Q     E  S S Q    E  S S    Q    E  S S E  E  E  S S
--0-----0--0---0----0--0---|--0----0--0---0--0--0------|
--5-----5--5-5-3----3--3-3-|--1----1--1-1-0--0--0--0---|
--0-----0--0-0-4----4--4-4-|--2----2--2-2-0--0--0--0-0-|
--5-----5--5-5-0----0--0-0-|--0----0--0-0-0--0--0--0-0-|
--5-----5--5-5-4----4--4-4-|--2----2--2-2-0--0--0--0-0-|
---------------------------|---------------------------|


  ^    ^   v  v ^  ^  ^ v    ^    ^  ^ v  v       NH  ^   v
  Q    E.  E  S E  E  S S    Q    E  S E  S  E    E   S   S
--5----5---5--5-5--5------|--7----7--7-7--7------------------|
--6----6---6--6-6--6--6---|--8----8--8-8--8-------8------(0)-|
--5----5---5--5-5--5--5-5-|--7----7--7-7--7-----<>7--(0)-(0)-|
--7----7---7--7-7--7--7-7-|--9----9--9-9--9-------9--(0)-(0)-|
--5----5---5--5-5--5--5-5-|--7----7--7-7--0--7--<>7--(0)-(0)-|
--5----5---5--5-5--5--5-5-|--7----7--7-7--0h-7---------------|


  ^
  W                   W
--8----------------|--L----------------|
--8----------------|--L----------------|
--9----------------|--L----------------|
--x----------------|--L----------------|
--9----------------|--L----------------|
--0----------------|--L----------------|


  06:58
  S      S  S S S  S  S  S  S S S  S  S S S S
----------------------------------------------|
------------------------------------------4---|
--5-----(5)---5---(5)-5-(5)---5---(5)-5---5---|
--x-----(x)---x---(x)-x-(x)---x---(x)-x---x---|
--5-----(5)---5---(5)-5-(5)---5---(5)-5---5---|
--x------x--x-x-x--x--x--x--x-x-x--x--x-x-x-x-|


   S  S S S S S S S  S  S S S S S S S
--------------------------------------|
--------------------------------------|
--(1)-1-1-1---1-1---(3)-3-3-3---3-3---|
--(x)-x-x-x---x-x---(x)-x-x-x---x-x---|
--(1)-1-1-1---1-1---(3)-3-3-3---3-3---|
---x--x-x-x-x-x-x-x--x--x-x-x-x-x-x-x-|


  S  S  S S S  S  S  S  S S S  S  S S S S
------------------------------------------|
--------------------------------------4---|
--5-(5)---5---(5)-5-(5)---5---(5)-5---5---|
--x-(x)---x---(x)-x-(x)---x---(x)-x---x---|
--5-(5)---5---(5)-5-(5)---5---(5)-5---5---|
--x--x--x-x-x--x--x--x--x-x-x--x--x-x-x-x-|


   S  S S S S S S S  S  S S S S S S S
--------------------------------------|
--------------------------------------|
--(1)-1-1-1---1-1---(3)-3-3-3---3-3---|
--(x)-x-x-x---x-x---(x)-x-x-x---x-x---|
--(1)-1-1-1---1-1---(3)-3-3-3---3-3---|
---x--x-x-x-x-x-x-x--x--x-x-x-x-x-x-x-|


  S  S  S S S  S  S  S  S S S  S  S S S S
------------------------------------------|
--------------------------------------4---|
--5-(5)---5---(5)-5-(5)---5---(5)-5---5---|
--x-(x)---x---(x)-x-(x)---x---(x)-x---x---|
--5-(5)---5---(5)-5-(5)---5---(5)-5---5---|
--x--x--x-x-x--x--x--x--x-x-x--x--x-x-x-x-|


   S  S S S S S S S  S  S S S S S S S
--------------------------------------|
--------------------------------------|
--(1)-1-1-1---1-1---(3)-3-3-3---3-3---|
--(x)-x-x-x---x-x---(x)-x-x-x---x-x---|
--(1)-1-1-1---1-1---(3)-3-3-3---3-3---|
---x--x-x-x-x-x-x-x--x--x-x-x-x-x-x-x-|


  S  S  S S S  S  S  S  S S S  S  S S S S
------------------------------------------|
--------------------------------------4---|
--5-(5)---5---(5)-5-(5)---5---(5)-5---5---|
--x-(x)---x---(x)-x-(x)---x---(x)-x---x---|
--5-(5)---5---(5)-5-(5)---5---(5)-5---5---|
--x--x--x-x-x--x--x--x--x-x-x--x--x-x-x-x-|


                                         07:18
   S  S S S S S S S  S  S S S S S S S    E     E  E   E    E   E  S  S  E
--------------------------------------|--8--------8--------7------------8--|
--------------------------------------|------------------------------------|
--(1)-1-1-1---1-1---(3)-3-3-3---3-3---|--------------(0)------------(0)----|
--(x)-x-x-x---x-x---(x)-x-x-x---x-x---|------------------------------------|
--(1)-1-1-1---1-1---(3)-3-3-3---3-3---|------------------------------------|
---x--x-x-x-x-x-x-x--x--x-x-x-x-x-x-x-|--0-----0--x-------11--11--x--------|


   E  S  S  E  S S E  E  E  E     E  S  S  S S S  S E   S S S S S  S
--10--------8--7---8-----------|-------------------------------------|
----------------------8-----8--|--9------------8s-6-8~----------6h-8-|
--------(0)--------------8-----|-------(0)----------------0----------|
-------------------------------|-------------------------------------|
-----------------0-0-----------|-----------x-0------0---0---x-0------|
---9--9-----x------------x-----|--5--5-------------------------------|


  S  S S  S S S S S S S S S S S S  S     S  S S S S  S S S S S S S S S S  S
--------------------------------------|--8s-7---8---10---8---7---8---7-------|
--8s-9-8p-6---6---8---9---8---6-------|--------------------------------------|
------------8-------------------------|--------------------------------------|
----------------x---x---x---x---x-----|-------x---x----x---x---x---x---x-----|
----------------------------------(0)-|----------------------------------(0)-|
--0-----------------------------------|--0-----------------------------------|


  E  E  E   E    E   E  S  S  E      E  S  S  E  S S E  E  E  E
--8-----8--------7------------8--|--10--------8--7---8-----------|
---------------------------------|----------------------8-----8--|
-----------(0)------------(0)----|--------(0)--------------8-----|
---------------------------------|-------------------------------|
---------------------------------|-----------------0-0-----------|
--0--0--x-------11--11--x--------|---9--9-----x------------x-----|


  E  S  S  S S S  S E   S S S S S  S
-------------------------------------|
--9------------8s-6-8~----------6h-8-|
-------(0)----------------0----------|
-------------------------------------|
-----------x-0------0---0---x-0------|
--5--5-------------------------------|


  S  S T  T  S  S S S  S  S  S S S S S S S    S S  S S S S S S  S S  S S  S S
-------------------------------------------|-----------8---9---10---11---12---|
--8s-9-8s-9p-8p-6---6h-8s-9s-8-6---6---8---|--9---11--------------------------|
------------------7--------------7---------|----------------------------------|
-------------------------------------x---x-|----x----x---x---x----x----x----x-|
-------------------------------------------|----------------------------------|
--0----------------------------------------|----------------------------------|


  E  E  E   E    E   E  S  S  E      E  S  S  E  S S E  E  E  E
--8-----8--------7------------8--|--10--------8--7---8-----------|
---------------------------------|----------------------8-----8--|
-----------(0)------------(0)----|--------(0)--------------8-----|
---------------------------------|-------------------------------|
---------------------------------|-----------------0-0-----------|
--0--0--x-------11--11--x--------|---9--9-----x------------x-----|


  E  S  S  S S S  S E   S S S S S  S    S S S S S S S  S S S S S S  S
-------------------------------------|------------8---10---8---7-------|
--9------------8s-6-8~----------6h-8-|----8---6------------------------|
-------(0)----------------0----------|---------------------------------|
-------------------------------------|--x---x---x---x----x---x---x-----|
-----------x-0------0---0---x-0------|-----------------------------(0)-|
--5--5-------------------------------|---------------------------------|


  S   S S  S S  S S  S S  S S S S  S S  S     E  E  E   E    E   E  S  S  E
--8h-10---12---13---12---10---8---10-------|--8-----8--------7------------8--|
-------------------------------------------|---------------------------------|
-------------------------------------------|-----------(0)------------(0)----|
--------x----x----x----x----x---x----x-----|---------------------------------|
---------------------------------------(0)-|---------------------------------|
--0----------------------------------------|--0--0--x-------11--11--x--------|


   E  S  S  E  S S E  E  E  E     E  S  S  S S S  S E   S S S S S  S
--10--------8--7---8-----------|-------------------------------------|
----------------------8-----8--|--9------------8s-6-8~----------6h-8-|
--------(0)--------------8-----|-------(0)----------------0----------|
-------------------------------|-------------------------------------|
-----------------0-0-----------|-----------x-0------0---0---x-0------|
---9--9-----x------------x-----|--5--5-------------------------------|


  E  S S S  S  S  S  S  S  S  S  S  S  S  S
--8---------8-----8-----8-----8-----8--------|
-----------(0)---(0)---(0)---(0)---(0)-------|
---------------------------------------------|
---------------x-----x-----x-----x-----x-----|
-----------------------------------------(0)-|
--0--0-0-x--0--------------------------------|


  E   E  S S S S S  S S  S  S  S  S  S     E  E  E   E    E   E  S  S  E
-----10----8-----7s-8---(8)---(8)-------|--8-----8--------7------------8--|
-----------------7s-8----8-----8--------|---------------------------------|
-------------------------9-----9--------|-----------(0)------------(0)----|
----------------------------------------|---------------------------------|
------------------------------------(0)-|---------------------------------|
--0------0---x-0------x-----x-----x-----|--0--0--x-------11--11--x--------|


   E  S  S  E  S S E  E  E  E     E  S  S  S S S  S E   S S S S S  S
--10--------8--7---8-----------|-------------------------------------|
----------------------8-----8--|--9------------8s-6-8~----------6h-8-|
--------(0)--------------8-----|-------(0)----------------0----------|
-------------------------------|-------------------------------------|
-----------------0-0-----------|-----------x-0------0---0---x-0------|
---9--9-----x------------x-----|--5--5-------------------------------|


                                    PM
  S  S S S S  S S S S S S S S  S S  S     S   S S S S S S S S  S S S S S S  S
---------------------------------------|---------------------------------------|
--8s-9---8--------8---9---8------------|----------8---9---8--------8---9-------|
-------------10---------------10-------|--8s-10---------------10---------------|
-------x---x----x---x---x---x----x-----|--------x---x---x---x----x---x---x-----|
-----------------------------------(0)-|-----------------------------------(0)-|
--0------------------------------------|--0------------------------------------|


  E  E  E   E    E   E  S  S  E      E  S  S  E  S S E  E  E  E
--8-----8--------7------------8--|--10--------8--7---8-----------|
---------------------------------|----------------------8-----8--|
-----------(0)------------(0)----|--------(0)--------------8-----|
---------------------------------|-------------------------------|
---------------------------------|-----------------0-0-----------|
--0--0--x-------11--11--x--------|---9--9-----x------------x-----|


  E  S  S  S S S  S E   S S S S S  S    S  S S S S S S S S S S S S S S  S
-------------------------------------|-------------------------------------|
--9------------8s-6-8~----------6h-8-|--8s-9---8---6---8-------6---8-------|
-------(0)----------------0----------|---------------------7---------------|
-------------------------------------|-------x---x---x---x---x---x---x-----|
-----------x-0------0---0---x-0------|---------------------------------(0)-|
--5--5-------------------------------|--0----------------------------------|


  S  S S S S  S S  T   S.  S S S S S S  S     E  E  E   E    E   E  S  S  E
---------8---10---10s-11p-10---8---7-------|--8-----8--------7------------8--|
--8s-9-------------------------------------|---------------------------------|
-------------------------------------------|-----------(0)------------(0)----|
-------x---x----x------------x---x---x-----|---------------------------------|
---------------------------------------(0)-|---------------------------------|
--0----------------------------------------|--0--0--x-------11--11--x--------|


   E  S  S  E  S S E  E  E  E     E  S  S  S S S  S E   S S S S S  S
--10--------8--7---8-----------|-------------------------------------|
----------------------8-----8--|--9------------8s-6-8~----------6h-8-|
--------(0)--------------8-----|-------(0)----------------0----------|
-------------------------------|-------------------------------------|
-----------------0-0-----------|-----------x-0------0---0---x-0------|
---9--9-----x------------x-----|--5--5-------------------------------|


                        08:45
  W                     W
--------------------|--10~----------------||
--3~----------------|---------------------||
--------------------|---------------------||
--------------------|---------------------||
--------------------|---------------------||
--0-----------------|---------------------||




Duration Legend
---------------
W - whole
H - half
Q - quarter
E - 8th
S - 16th
T - 32nd
X - 64th
. - note dotted
|-n-|  - n-tuplets


Tablature Legend
----------------
L   - tied note
x   - dead note
g   - grace note
(n) - ghost note
NH  - natural harmonic
h   - hammer on
p   - pull off
s   - legato slide
~   - vibrato
^   - brush up
v   - brush down



echo "Hello World!";

for - Charlene Mae -

Play until your fingers bleed!


Добавлено: 22.03.2012
Другие материалы по этой песне:

Страница создана 22.03.2012
http://primanota.ru/sungha-jung/november-rain-chords.htm
Привет, Гость.
Предлагаем пройти революционный курс по гитаре.
Подарок от PrimaNota.Ru, забирай!