PrimaNota.ru - самый крупный в мире бесплатный архив песенных текстов, аккордов, табулатур и нот


Sungha Jung - My Love - таба, видео

Регистрация Запомнить меня
Войти через:  Facebook Google Twitter Vk Yandex Mail.ru

Sungha Jung - My Love - таба, видео

Печатать
Просмотров: 183
Уроки эстрадного вокала в Санкт-Петербурге

Title: My Love

Artist: Sungha Jung

Arranged by: Sungha Jung

Tabbed by: Ryan R. Gonzales

Location: Rosario, Batangas - Philippines

Tuning: e B G D A E (Standard Tuning)



                                       ^                                    
     E  E  E  E  Q    Q       H        Q    E  E     Q    E  E  E  E  Q     
E||--1--------1------------|----------------------|------------------------|
B||--------3-----1---------|--3--------3----1--0--|-------------------0----|
G||-----2-------------2----|-----------0----------|--2----------2----------|
D||--0-----------0---------|-----------0----------|----------3-----3-------|
A||------------------------|----------------------|-------3----------------|
E||------------------------|--3-------------------|--1---------------------|


  ^        ^       v        v     v  ^  ^                                  
  H        Q    E  E     E  E  E  E  E  E  E  E     Q    E  E  Q    E  E   
--0--------0----L--0--|--L--0--L--0--0--L--------|------------------------|
--1--------1----L--1--|--L--1--L--1--1--L--x-----|--1----1--1-------------|
--0--------0----L--0--|--L--0--L--0--0-----x--0--|---------------------0--|
--2--------2----L--2--|--L--2--L--2--2--L--x-----|-------------2----0-----|
--3-------------L--3--|-----3-----3--3-----x-----|--3---------------------|
----------------------|--------------------------|------------------------|


                                              ^                          
  Q    E  E  Q    E  E     Q    E  E  E  Q    E     H        Q    E  E   
------------------------|------------------------|----------------------|
--3----3--3-------------|--0----0--0-----1----1--|--L-------------------|
---------------------0--|---------------------2--|--L----------------0--|
-------------0----0-----|-------------2----------|-----------2----------|
------------------------|------------------------|--0-------------------|
--3---------------------|--0---------------------|----------------0-----|


                                                               ^          
  Q    E  E  Q    E  E     Q    E  E  E  Q    E     E  E  Q    Q.     E   
------------------------|------------------------|-----------------------|
------------------------|----------1-------------|-----------------------|
--2----2--2----------0--|--2----2--------2----2--|-----0-------0------L--|
------------------3-----|------------------------|-------------0------L--|
-------------3----------|------------------------|-------------2------L--|
--1---------------------|--1----------1----------|--3-----3----3------L--|


  v     v     v  ^                                                           
  E  E  E  E  E  E  E  E     E  Q    E  E  Q    E     E  Q    E  E  Q    E   
--3--L--3-----3--3--L-----|------------------------|------------------------|
--0--L--0--L--0--0--L--x--|-----1----1--1----------|-----3----3--3----------|
--0-----0--L--0--0--L--x--|--0---------------------|--0------------------0--|
--0--L--0--L--0--0--L--x--|----------------2----0--|----------------0-------|
--2-----2-----2--2-----x--|-----3------------------|------------------------|
--L--L-----------3--------|------------------------|-----3------------------|


  E  Q    E  E  E  Q       E  H        Q    E     E  Q    E  E  Q    E   
--0--3----3--3--L--0----|----------------------|------------------------|
----------0--0--L-------|--1--L----------------|------------------------|
------------------------|-----L----------------|--0--2----2--2----------|
----------------2-------|--------------2-------|---------------------3--|
------------------------|-----0----------------|----------------3-------|
-----0------------------|-------------------0--|-----1------------------|


  E  Q    E  E  E  Q       E  E  Q    E  E  E  E     E  E   E  E  E  E  E  E   
------------------------|-------------------------|---------------------------|
-------------1----------|-------------------0--L--|---------------------------|
--0--2----2--------2----|--2-----0----------0-----|--2--2p--0-----------0-----|
------------------------|-------------------------|---------------0-----------|
------------------------|-------------2-----------|------------2-----------2--|
-----1----------1-------|-----3----------3-----3--|-----3------------3--------|


  E  Q    E  E  Q    E     E  Q    E  E  E  E  E     E  Q    E  E  Q    E   
-----1------------------|-------------------------|------------------------|
-----3------------------|-----0-------------------|-----1----1--1-------3--|
-----2----------2-------|-----0-------------0-----|-----0------------------|
--0--0----0--0----------|--0----------0-----------|--0-------------2-------|
------------------------|----------2-----------2--|-----3------------------|
----------------1----1--|-----3----------3--------|------------------------|


  E  E  E  E  E  E  E  E     E  Q    E  E  Q    E     E  E  E  E  E  E  E  E   
--0-----------------------|-----1----1--1-------1--|--1-----0-----------------|
--------1-----------1-----|----------3--3----------|--------------1-----3-----|
--------------0-----------|--0-------------2-------|-----------2--------------|
-----------2-----------2--|-----0------------------|-----0-----------0-----0--|
-----3-----------3--------|------------------------|--------------------------|
--------------------------|------------------------|--------------------------|


              ^    v     v  v  v  v  v  ^                                   
  E  H        Q    E     E  E  E  E  E  Q    E      E   Q    E  E  Q    E   
--------------0-------|--0-----0--------0-------|--------------------------|
-----3--------3----L--|--3--L--3--L--3--1----0--|--------------------------|
--0--0--------0----L--|--0--L--0--L--0--0-------|--(0)--2----0--0----------|
--------------0----L--|--0--L--0--L--0----------|-----------------------3--|
--------------2-------|--2-----2----------------|--------------------------|
-----3--------3-------|-------------------------|-------1----------1-------|


  E  Q    E  E  Q    E      E   Q    E  E  E  E  E     E  Q    E  E  Q    E   
------------------------|---------------------------|----------------0----3--|
----------------1----0--|---------------------------|----------------1-------|
--0----------0----------|--(0)--2----0--0-----------|-------------0----------|
----------2-------------|---------------------3-----|--2-------2-------------|
-----3------------------|---------------------------|-----3------------------|
------------------------|-------1----------1-----1--|------------------------|


  E  Q    E  E  Q    E     E  Q    E  E  E  E  E     E  Q    E  E  E  E  E   
-----1----0-------------|-----0----------------0--|-------------------------|
--0----------3----------|----------3--1-----------|--3-------------------0--|
------------------------|--0----------------------|----------------2-----0--|
---------------------0--|-------------------2-----|-------------0-----------|
------------------------|-----3----------3--------|----------2--------------|
-----1----------1-------|-------------------------|-----3-------------3-----|


  E  Q    E  E  Q    E      E   Q    E  E  Q    E     E  Q    E  E  Q    E   
------------------------|--------------------------|------------------------|
--0-------------1----0--|--------------------------|----------------1----0--|
--0----------0----------|--(0)--2----0--0----------|--0----------0----------|
----------0-------------|-----------------------3--|----------2-------------|
------------------------|--------------------------|-----3------------------|
-----3------------------|-------1----------1-------|------------------------|


  E  Q    E  E  E  E  E     E  Q    E  E  Q    E     E  Q    E  E  Q    E   
-------------3-----1-----|--0-------------0----3--|-----1----0-------------|
-------------------------|----------------1-------|--0----------3----------|
--2-------0--------------|-------------0----------|------------------------|
-------------------------|----------2-------------|---------------------0--|
-------------------------|-----3------------------|------------------------|
-----1----------1-----1--|------------------------|-----1----------1-------|


                                        ^          v  v  v                  
  E  Q    E  E  E  E  E     E  H        Q    E     E  E  E  E  E  Q    E    
-----0----------------0--|----------------------|--0-----0-----------------|
----------3--1-----------|--3-------------------|--3--L--3--x-----1----0s--|
--0----------------------|--------------0----L--|--0--L--0--x--0-----------|
-------------------2-----|--------------0----L--|--0--L--0--x--------------|
-----3----------3--------|--------------2----L--|--2-----2--x--------------|
-------------------------|-----3--------3----L--|--3-----3-----------------|


          ^                                                          
  E  Q    H        E     H        H           E  Q    E  E  Q    E   
----------0--------L--|--L-----------------|------------------------|
--1-------1--------L--|--L-----------------|-----1----1--1----------|
----------0--------L--|--L-----------------|--0---------------------|
----------2--------L--|--L-----------------|----------------2----0--|
-----3-------------L--|--L-----------------|-----3------------------|
----------------------|--------------------|------------------------|


                                                     ^                    
  E  Q    E  E  Q    E     E  E  E  E  E  E  Q       E  H        Q    E   
------------------------|-------------------------|----------------------|
-----3----3--3----------|-----0-----0--0-----1----|--1--L----------------|
--0---------------------|--0--0-------------------|--2--L----------------|
----------------0----0--|--------2--------2-------|--------------2-------|
------------------------|-------------------------|-----0----------------|
-----3------------------|-----0-------------------|-------------------0--|


                                                                      ^       
  E  E  E  E  E  E  E   E     E  Q    E  E  E  Q       E  E  E  E  E  Q.      
---------------------------|------------------------|------------------------|
---------------------------|-------------1----------|------------------------|
--0--2-----2--2------------|--0--2----2--------2----|--2-----0---------------|
--------------------2h--3--|------------------------|-----------0-----0------|
--------3--------3---------|------------------------|--------------2--2------|
-----1---------------------|-----1----------1-------|-----3-----------3------|


  v  v  v  v  v  ^  v                                                         
  E  E  E  E  E  E  E  E     E  E  E  E  E  Q    E     E  Q    E  E  Q    E   
--3-----3-----3-----------|-------------------------|------------------------|
--0--L--0--L--0--0--L--x--|-----1--0--1--1----------|-----3----3--3----------|
--0--L--0--L--0--0--L--x--|--0----------------------|--0------------------0--|
--0--L--0--L--0--0--L--x--|-----------------2----0--|----------------0-------|
--2-----2-----2--2-----x--|-----3-------------------|------------------------|
--3-----3-----3-----------|-------------------------|-----3------------------|


  E  Q    E  E  E  Q       E  H        Q    E     E  Q    E  E  E  E   E   
--0--3----3--3-----0----|----------------------|--------------------------|
-----0----0--0----------|--1--L----------------|--------------------------|
------------------------|--2--L----------------|--0--2----2--2------------|
----------------2-------|--------------2-------|-------------------2h--3--|
------------------------|-----0----------------|----------------3---------|
-----0------------------|-------------------0--|-----1--------------------|


  E  Q    E  E  E  Q       E  E  Q    E  E  E  E     E  E   E  E  E  E  E  E   
------------------------|-------------------------|---------------------------|
-------------1----------|-------------------0--L--|---------------------------|
--0--2----2--------2----|--2-----0----------0-----|--2--2p--0-----------0-----|
------------------------|-------------------------|---------------0-----------|
------------------------|-------------2-----------|------------2-----------2--|
-----1----------1-------|-----3----------3-----3--|-----3------------3--------|


  E  Q    E  E  Q    E     E  Q    E  E  E  E  E     E  E  E  E  E  E  E  E   
-----1------------------|-------------------------|--------------------------|
-----3------------------|-----0-------------------|-----1-----1--1--------3--|
-----2----------2-------|-----0-------------0-----|-----0-----0--0-----------|
--0--0----0--0----------|--0----------0-----------|--0-----2-----------2-----|
------------------------|----------2-----------2--|-----3-----------3--------|
----------------1----1--|-----3----------3--------|--------------------------|


  E  E  E  E  E  E  E  E     E  E  E  E  E  E  E  E   
--0-----------------------|-----1--L--1--1--L-----1--|
--------1-----------1-----|-----0--L--0--0--L--3-----|
--------------0-----------|--0-----2--------2--------|
-----------2-----------2--|-----0--------------------|
-----3-----------3--------|--------------------------|
--------------------------|--------------------------|


                                               ^        ^   v    v              
  E  E  E  E  E  E  E  E     E  E  Q.      E   Q        E   Q    E  E  E  Q     
--3-----0-----1-----0-----|--0-----L-----------0----|---L---0----0-------------|
--------------------------|--------------------3----|--(3)--3----3--x-----1----|
-----------2--------------|--------------------0----|--(0)--0----0--x--0-------|
-----0-----------0-----0--|---------------(0)--0----|--(0)--0----0--x----------|
--------------------------|--------------------2----|---L---2----2--x----------|
--------------------------|--------3-----------3----|---L----------------------|


  E   E   Q    E  E  E  E     E  E  E  E   E  E  Q       Q    Q    E  E  E  E   
---------------------------|--------------------------|------------------------|
--0------------------------|---------------------1----|--0---------------------|
-----(0)--2----0--0--------|-----0------------0-------|--0----2----0--0--------|
------------------------0--|--3--------2s--3----------|---------------------3--|
---------------------------|--2-----3-----------------|------------------------|
----------1----------3-----|--------------------------|--3----1----------1-----|


  E  E  Q    E  E  Q       E  E  Q    E  E  E  E      E  E  Q    E  E  E  E   
-------------------0----|--3-----1----0------------|--------0----------------|
-------------------1----|-----0----------3---------|-------------3--1--------|
----------------0-------|--------------------------|-----0-------------------|
-----2-------2----------|----------------------0s--|--2-------------------2--|
--------3---------------|--------------------------|--------3----------3-----|
--1---------------------|--------1----------1------|-------------------------|


  E  E  Q    E  E  E  E     E  E  Q    E  E  Q       E   E   Q    E  E  E  E   
--0----------------------|------------------------|---------------------------|
-----3-------------------|--0--0-------------1----|--0------------------------|
-------------------2-----|--0--0----------0-------|-----(0)--2----0--0--------|
----------------0--------|-------------0----------|------------------------0--|
-------------2-----------|------------------------|---------------------------|
--------3-------------3--|--------3---------------|----------1----------3-----|


  E  E  E  E   E  E  Q       Q    Q    E   E  E  E     E  E  Q    E  E  Q     
--------------------------|------------2s--3-----1--|-----0-------------0----|
---------------------1----|--0----------------------|-------------------1----|
-----0------------0-------|--0----2-----------------|----------------0-------|
--3--------2s--3----------|-------------------------|-------------2----------|
--2-----3-----------------|-------------------------|--------3---------------|
--------------------------|--3----1-----------1-----|--1---------------------|


                                                                    ^     
  E  E  Q    E  E  Q       E  E  Q    E  E  E  E     E  E  H        Q     
--3-----1----0----------|--------0----------------|--0-------------------|
-----0----------3-------|-------------3--1--------|-----3----------------|
------------------------|-----0-------------------|-----------------0----|
------------------------|--0-------------------2--|-----------------0----|
------------------------|--------3----------3-----|-----------------2----|
--------1----------1----|-------------------------|--------3--------3----|


  E  E  Q    E  Q.         E  E  H        Q       E  E  Q    E  E  E  E   
------------------------|----------------------|-------------------------|
--x-----5----3--1-------|--0--1--L-------------|--------3----1--0--------|
--x--0--0----0--0~------|-----2--L-------------|-----0----------------2--|
--x---------------------|-----------------2----|-------------------------|
--x---------------------|--------0-------------|-------------------------|
------------------------|----------------------|--0-----1----------1-----|


  E  E  E  E   Q    Q       Q    Q    E  E  Q       E  E  E  Q.     Q     
-------------------------|-------0---------------|-----0-----------------|
-----0--------------0----|--L---------3--1-------|--0--------1-----------|
-----------2p--0----0----|--L--------------------|-----------------------|
-------------------------|-----------------------|------------------2----|
-------------------------|-----------------------|--------0--------------|
--0-----3----------------|--3----1----------1----|-----------------------|


                                           ^          v    v    v  ^     
  E  E  Q    E  E  E  E     E  E  H        Q       E  Q    Q    E  Q     
-------------------------|----------------------|-----------------------|
-------------------------|----------------------|-----------------------|
-----0--2----2--2--------|--0--0-----------0----|--L--0----0----0--0----|
----------------------3--|-----------------0----|--L--0----0----0--0----|
-------------------3-----|-----------------2----|--L--2----2----2-------|
--0-----1----------------|--------0--------3----|--L--3----3------------|


   Q     Q     E   E   Q       E  E   Q     E   E  Q     
----------------------------|---------------------------|
--12----13----13--13--------|--------15----15--15-------|
----------------------------|-----0---------------------|
----------------------14----|--0-------------------0----|
--------15------------------|---------------------------|
----------------------------|--------15-----------------|


                                      ^                 
  E  E   Q     E   E  E  E      Q     E   Q.      Q     
----------------------------|--------------------------|
--------12----12--12-----L--|--13----13---L------------|
-----0---0-----0---0-----L--|--------14---L------------|
--0-------------------0-----|--------------------14----|
----------------------------|-------------0------------|
---------0------------------|--------------------------|


  E   E   Q     E   E   Q        E   E  E   E  E   E  E   E   
---------13----13--13--------|--13--13-----12----------------|
---------15----15--15--------|--15--15------------13-----15--|
-----14----------------14----|-----------------0-------------|
----------0------------------|----------0-------------0------|
--0--------------------------|-------------------------------|
-----------------------------|-------------------------------|


                   ^        v   v   v   v           NH                         
  E  E   H         Q        E   E   E   E   E  E    Q       H        H         
-------------------0----|---L-------L---0----------------|--------------------|
--------15--------15----|---L--15---L--15---x------------|--------------------|
-----0---0---------0----|---L---0---L---0---x-----<>7----|--L-----------------|
--0----------------0----|---L---0---L---0---x--0---------|--------------------|
------------------14----|------14------14---x------------|--------------------|
--------15--------15----|------15------15----------------|--------------------|


  Q    E  E   Q    E  E     Q     E  E   Q    E  E     Q    E  E   Q    E  E   
-------------------------|--------------------------|-------------------------|
-------------------------|--------------------------|-------------------------|
--7----6-----------------|--------------------------|--7----6-----------------|
----------0---9----7--7--|-----------7-----------7--|----------0---9----7--7--|
-------------10----------|-------10-----------9-----|-------------10----------|
-------------------------|--0-----------10----------|-------------------------|


  E   E  E  E   Q    E  E     Q     E  E  Q    E  E     Q    E  E  Q    E  E   
---------------------------|-------------------------|------------------------|
---------------------------|--7----10-----8----7--5--|-------------7----5-----|
---------------------------|-----------7-------------|---------------------7--|
------------------------7--|-------------------------|------------------------|
-----10-----9--------9-----|--------------7----------|--7----7--5--5----------|
--0------0-----10----------|-------------------------|------------------------|


  E  E  E  E  Q    E  E     E  E  E  E  Q    E  E     Q    E  E   Q    E  E   
-------------------------|-------------------------|-------------------------|
--------7--5-------------|-------------------------|-------------------------|
-------------------------|--6-----6--6-------------|--7----6-----------------|
-----7----------------7--|-----7--7--7----------7--|----------0---9----7--7--|
--5----------------7-----|-------------------7-----|-------------10----------|
--------------5----------|--------------5----------|-------------------------|


  Q     E  E   Q    E  E     Q    E  E   Q    E  E       S S Q    E  Q    Q     
--------------------------|--------------------------|-------------------------|
--------------------------|----------------------9s--|--10---8----7------------|
--------------------------|--7----6------------------|-------------------------|
-----------7-----------7--|----------9--------7------|--------------------7----|
-------10-----------9-----|-------------10-----------|-----0---------5---------|
--0-----------10----------|--------------------------|-------------------------|


  Q      Q    Q    E  E     Q    E  E  Q    E  E     E  E  E  E  H         
-------------------------|------------------------|-----------------------|
--7S----10----8----7--5--|-------------7----5-----|--------7--5-----------|
-------------------------|---------------------7--|-----------------------|
-------------------------|------------------------|-----7-----------------|
--------------7----------|--7----7--5--5----------|--5--------------------|
-------------------------|------------------------|--------------5--------|


  ^    v  v  v  v                                                           
  Q    E  E  E  E  E  E     Q    E  E  Q    E  E     E  Q    E  E  E  Q     
-------------------------|------------------------|------------------------|
--5----L--5--L--5--x-----|-------------8----8--8--|-----8----7-----5-------|
--6----L--6--L--6--x-----|--7----6--L-------------|-------------------7----|
--7----L--7--L--7--x--0--|------------------------|------------------------|
--7----L--7--------x-----|-------------7----------|--7----------5----------|
--5----------------------|------------------------|------------------------|


  Q    E  E  Q    E  E     E  Q    E  E  E   E  E     Q      E   E  Q    E  E   
------------------------|-----5----5---------------|---------------------------|
-------------8----8--8--|----------------5s--7-----|--7S----10---L--8----7--5--|
------------------------|--------------------------|---------------------------|
----------7-------------|-----------------------7--|---------------------------|
--5----5-----7----------|--7----------5------------|----------------7----------|
------------------------|--------------------------|---------------------------|


                                                   ^       v   v  v         
  Q    E  E  Q    E  E     E  E  E  E  H           Q    E  E   E  E  E  E   
------------------------|-----------------------|--------------------------|
-------------7----5-----|--------7--5-----------|--5----L--5---L--5--x-----|
---------------------7--|-----------------------|--6----L--6---L--6--x-----|
------------------------|-----7-----------------|--7----L--7---L--7--x--0--|
--7----7--5--5----------|--5--------------------|--7----L--7---------x-----|
------------------------|--------------5--------|--5-----------------------|


  Q    E  E   Q    E  E     Q     E  E   Q    E  E     Q    E  E   Q    E  E    
-------------------------|--------------------------|--------------------------|
-------------------------|--------------------------|----------------------9s--|
--7----6-----------------|--------------------------|--7----6------------------|
----------0---9----7--7--|-----------7-----------7--|----------9--------7------|
-------------10----------|-------10-----------9-----|-------------10-----------|
-------------------------|--0-----------10----------|--------------------------|


   S S E  E  E  Q    Q       Q      E   E  Q    E  E     Q    E  E  Q    E  E   
--------------------------|---------------------------|------------------------|
--10---8-----7------------|--7S----10---L--8----7--5--|-------------7----5-----|
--------------------------|---------------------------|---------------------7--|
---------------------7----|---------------------------|------------------------|
-----0----0-----5---------|----------------7----------|--7----7--5--5----------|
--------------------------|---------------------------|------------------------|


                          ^       v   v  v                                
  E  E  E  E  H           Q    E  E   E  E  E  E     Q.     Q     Q.      
-----------------------|--5----L------L-----------|----------------------|
--------7--5-----------|--5----L--5---L--5--x-----|----------------------|
-----------------------|--6----L--6---L--6--x-----|--7------6s----7------|
-----7-----------------|--7----L--7---L--7--x--0--|----------------------|
--5--------------------|--7----L--7---------x-----|----------------------|
--------------5--------|--5-----------------------|----------------------|


               NH     NH        NH                  
   Q    Q      Q      Q         H        H          
---------------------------|----------------------||
---------------------------|--<>7-----------------||
--------------------<>7----|----------------------||
-------------<>7-----------|----------------------||
--------9------------------|----------------------||
--10-----------------------|----------------------||




Duration Legend
---------------
W - whole
H - half
Q - quarter
E - 8th
S - 16th
T - 32nd
X - 64th
. - note dotted
|-n-|  - n-tuplets


Tablature Legend
----------------
L   - tied note
x   - dead note
(n) - ghost note
NH  - natural harmonic
h   - hammer on
p   - pull off
S   - shift slide
s   - legato slide
~   - vibrato
^   - brush up
v   - brush down



echo "Hello World!";

for - Charlene Mae -

Play until your fingers bleed!


Добавлено: 03.04.2012
Другие материалы по этой песне:

Страница создана 03.04.2012
http://primanota.ru/sungha-jung/my-love-chords.htm
Привет, Гость.
Предлагаем пройти революционный курс по гитаре.
Подарок от PrimaNota.Ru, забирай!